Oops, an error
Loading. Please wait.

Papas Got A Brand New Bag Bass Tab

version 2
version 2

Whole song

Interactive

4,933 views 9 this week
no commentswrite comment
1 2 3 4 5
please rate
add to favorites
launch autoscroll
font size
0
reset
guitar tuner
Autoscroll
slow
fast
+/-
esc
set tempo
stop
Help us to improve Ultimate-Guitar.com Take our survey!
×
Author
Artist: James Brown
Song: Papa's Got a Brand New Bag

Tabbed by: Alex Kehoe
www.alexkehoe.co.uk


VERSE ONE
G|----------------------------------------------------------------|
D|-------------------------------------------------------------7--|
A|-------7---------5-7------------5-----7---------5-7--------7---7|
E|--7--------7-7----------7-7--------------7-7---------7-7--------|

G|---------------------------------------------------------------------|
D|---7--------5-7----------------------------------7-----9--------5-6-7|
A|------7-7---------7-7----5-6-7-------5-7-------7--7------9-9-7-------|
E|-----------------------7--------7-7-------7-7------------------------|


VERSE TWO
G|-------------------------------------------------------------|
D|----------------------------------------------------------7--|
A|-------7---------5-7-------------5-7---------5-7--------7---7|
E|--7--------7-7----------7-7-----------7-7---------7-7--------|

G|---------------------------------------------------------------------|
D|---7--------5-7----------------------------------7-----9--------5-6-7|
A|------7-7---------7-7----5-6-7-------5-7-------7--7------9-9-7-------|
E|----------------------7----------7-7-------7-7-----------------------|


VERSE THREE
G|----------------------------------------------------------------|
D|----------------------------------------------------------------|
A|-------7---------5-7-----------5---7---------5-7--------5-7-----|
E|--7--------7-7----------7-7-----------7-7---------7-7-------7-7-|

G|-------------------------------------------------------------------------------|
D|----------------------------------------------------------------------------7--|
A|5-7---------5-7--------5---7--------5----5------5-7------5---5-----5-7----7--7-|
E|------7-7---------7-7--------7---7----7----7-7------7--7--7---7-7------7-7-----|

G|-------------------------------------------------------------------|
D|---7--------5-7--------------------------------7-----9--------5-6-7|
A|------7-7---------7-----5-6-7-------5-7-------7--7------9---7------|
E|---------------------7----------7-7-------7-7----------------------|


VERSE FOUR
G|--------------------------------------------------------------------|
D|-----------------------------------------------------------------7--|
A|---------5-7---------5-7------------5--7------------5-7--------7---7|
E|--7---7--------7-7----------7-7--------------7-7---------7----------|

G|----------------------------------------------------------------------|
D|---7--------5-7----------------------------------7-----9--------5-6-7-|
A|------7-7---------7------5-6-7-------5-7-------7--7------9-9-7--------|
E|---------------------7----------7-7-------7-7-------------------------|


OUTRO
G|--------|
D|--------|
A|--------|
E|--7-----|


REPEAT UNTIL END
G|---------------------|
D|---------------------|
A|--------------7--5---|
E|--------7-7-7--7-----|


| /  slide up
| \  slide down
| h  hammer-on 
| p  pull-off 
| ~  vibrato 
| +  harmonic 
| x  Mute note

Tabbed by: Alex Kehoe
www.alexkehoe.co.uk
Suggest correction
Give kudos to tab author, rate the tab!
1 2 3 4 5
comments
print report bad tab
guest
You may want to rate the tab now too:
select rating
Wanna post a correction for this tab? Suggest correction