Oops, an error
Loading. Please wait.

Papas Got A Brand New Bag Bass

version 2
version 2

Whole song

Interactive

548 views 21 this week
no commentswrite comment
1 2 3 4 5
2 more votes to show rating
add to favorites
launch autoscroll
font size
0
reset
guitar tuner
×
Best way to learn
"Papas Got A Brand New Bag"
Autoscroll
slow
fast
+/-
esc
set tempo
stop
Author
-------------------------------------------------------------------------------
                        Papas got a Brand New Bag - James Brown
-------------------------------------------------------------------------------
Tabbed by: Redgend

Tuning:EADG

Verse 1,2,3 & 4:
G|-----------------------------------------------------|
D|-------9------------9------------9------------9------|
A|--6-7----------6-7--------5-6-7----------6-7---------|
E|---------7-7----------7-7----------7-7----------7-7--|
..Sister        Papas in the swing         Ha aint too..

G|---------9-----------9--------------------------------|
D|--5-6-7----------6-7--------------9------------9------|
A|-----------7-7---------7-7-5-6-7----------6-7---------|
E|------------------------------------7-7----------7-7--|
..Hip      about that new breed babe       He ain't no.. 

G|------------------------------------------------------|
D|--6---9-----------6-7---------------------------------|
A|----7-----9-------------------------------------------|
E|------------7-5-4--------------------------------7----|
   ..drag              Papa's got a brand new bag



Pre-Verse 3:
G|-----------------------------------------------------|
D|-------9------------9------------9------------9------|  X2
A|--6-7----------6-7----------6-7----------6-7---------|    (Then back to verse)
E|---------7-7----------7-7----------7-7----------7-7--|


Outro is the Pre-verse 3 over and over.

===============================================================================
Suggest correction
Give kudos to tab author, rate the tab!
1 2 3 4 5
comments
print report bad tab
guest
You may want to rate the tab now too:
select rating
Wanna post a correction for this tab? Suggest correction