Oops, an error
Loading. Please wait.

Play That Funky Music White Boy Tab

61,236 views 21 this week
3 commentsread comments
1 2 3 4 5
x 17
add to favorites
launch autoscroll
font size
0
reset
how to read this tab
guitar tuner
×
Best way to learn
"Play That Funky Music White Boy"
Autoscroll
slow
fast
+/-
esc
set tempo
stop
Artist: James Brown
Song: Play That Funky Music White Boy (Intro)
Album: Wild Cherry
Tunning: Standard

Hey. This is my first tab but not my first song. I hope you enjoy it.
Later!

[Intro]

e|--------------------------------------------------------------------|
B|--------------------------------------------------------------------|
G|--------------------------------------------------------------------|
D|---------2--0--2-----0-2--------------------------------------------|
A|-----------------0-2------------------------------------------------|
E|--0---0-------------------------------------------------------------|


Well, there it is. pretty easy but fun to play. Any questions,
comments, insults, jesters, panties, date offers, e-m@il me @
snowrider_9@hotmail.com

Copywrite: Andrew Jones
Suggest correction
comments
print report bad tab
3 comments total.
+3 reply
The Used 10 Feb 20, 2004 07:00 PM

evrything this is good but you should hammer on in the last few notes sounds more like it. but its all good

0 reply
Stevielanding 10 Mar 22, 2014 05:36 PM

Nice little piece.

0 reply
KGoodman104224 10 Oct 10, 2014 07:39 PM

e--------------------------------------------------------------------|
b--------------------------------------------------------------------|
g--------------------------------------------------------------------|
d--------------------------------------------------------------------|
a---------9--7--9--------7--9----------------------------------------|
E--0---0-----------7--9----------------------------------------------|

I have found this to be a good tab, anything better i would like to know please email me @kgoodman104224@muhsdstudents.org, thank you!

guest
You may want to rate the tab now too:
select rating
Wanna post a correction for this tab? Suggest correction