Oops, an error
Loading. Please wait.

Sex Machine Bass Tab

version 2
version 2

Whole song

28,342 views 57 this week
1 commentread comment
1 2 3 4 5
x 8
add to favorites
launch autoscroll
font size
0
reset
guitar tuner
Autoscroll
slow
fast
+/-
esc
set tempo
stop
Help us to improve Ultimate-Guitar.com Take our survey!
×
Author
Difficulty
intermediate
Played by Bootsy Collins, fantastic funk bassline.
i know its 100% correct; its from a bass book, so please rate it

Tabbing isnt great for rhythm, so you'll have to pick it up yourselves.

cheers

in EbMajor

[Whole tab] x4

G|-----------------8-------8------------------------------|
D|--------------------------------------------------------|
A|--66666666---6------4-6------4-6-6-----x----------------|
E|--------------------------------------------------------|

G|------8----------8--------------------------------------|
D|--------------------------------------------------------|
A|-6-------4-6-6------4-6------4--------------------------|
E|-------------------------3-6----------------------------|

G|------8------8--------------8---------------------------|
D|--------------------------------------------------------|
A|--6------4-6-----4-6-6---6------------------------------|
E|--------------------------------------------------------|

G|--------8---------8-------------------------------------|
D|--------------------------------------------------------|
A|---6-------4-6------------4-6---------4-6---------------|
E|--------------------------------x-3-6-------------------|



************************************

| x  Dead note

************************************
Suggest correction
comments
print report bad tab
1 comment total.
0 reply
larrymcqueary 31 Feb 22, 2015 02:34 AM

Your bass book is wrong on the beginning, or you transcribed it wrong. Also the "X" isn't a muted note, it's the octave again, almost a grace note going into the Eb that starts the next line of tab.

G|---------------------8-------------8------------------|
D|---6666666--------------------------------------------|
A|--6--------4-6--4-6-----4-66--------------------------|
E|----------6-------------------------------------------|

guest
You may want to rate the tab now too:
select rating
Wanna post a correction for this tab? Suggest correction