Oops, an error
Loading. Please wait.

Try Me Tab

2,706 views 6 this week
no commentswrite comment
1 2 3 4 5
please rate
add to favorites
launch autoscroll
font size
0
reset
how to read this tab
guitar tuner
Autoscroll
slow
fast
+/-
esc
set tempo
stop
Help us to improve Ultimate-Guitar.com Take our survey!
×
Author
Difficulty
novice
Band - James Brown
Song - Try Me
Album - Out Of Sight (Best Of)

Tuning: Standard (E A D G B E)
In The Key Of: C Major

Tabbed By: Tyler Freear (SumFX)

My Favorite Track By A Real Music Legend!

R.I.P James Brown.

Verse
C             Am       F
|-8-----------5-------|-1-----1-----1-----1-----|
|---8-----------5-----|---1-----1-----1-----1---|
|-----9-----------5---|-----2-----2-----2-----2-|
|-------11----------7-|-------------------------|
|---------------------|-------------------------|
|---------------------|-------------------------|
G
|-3-----3-----3-----3-----|
|---3-----3-----3-----3---|
|-----4-----4-----4-----4-|
|-------------------------|
|-------------------------|
|-------------------------|

Chorus 1 & 3
Bass Guitar & Piano 
|----------|---------|---------|---------|
|----------|---0-2-3-|-3-2-0---|---------|
|---0-2-3--|-3-------|-------3-|-3-2-0---|
|-3--------|---------|---------|-------3-|

Guitar
|----------|--------1-|---------|-------3-|
|----------|--5-----1-|-------5-|-------3-|
|----------|--5-----2-|-------5-|-------4-|
|----------|--5-----3-|-------5-|-------5-|
|----------|--3-----3-|-------3-|-------5-|
|----------|--------1-|---------|-------3-|

Chorus 2
Bass Guitar & Piano 
|----------|---------|---------|---------|
|----------|---0-2-3-|-3-2-0---|---------|
|---0-2-3--|-3-------|-------3-|---------|
|-3--------|---------|---------|---------|

Guitar
|----------|--------1-|---------|---------|
|----------|--5-----1-|-------5-|---------|
|----------|--5-----2-|-------5-|---------|
|----------|--5-----3-|-------5-|---------|
|----------|--3-----3-|-------3-|---------|
|----------|--------1-|---------|---------|

Bridge
C             Am        F
|-8-----------5-------|-1-----1-----1-----1-----|
|---8-----------5-----|---1-----1-----1-----1---|
|-----9-----------5---|-----2-----2-----2-----2-|
|-------11----------7-|-------------------------|
|---------------------|-------------------------|
|---------------------|-------------------------|
G
|-3-----3-------------|
|---3-----3-----------|
|-----4-----4---------|
|---------------------|
|---------------------|
|---------------------|

Bridge Brass Section
C          Am        F        F                      G
|---------|---------|--------|-1-1-1-1-1-1-1-1-1-1-1-|-3-3-3-3-3-3-3-3-3-3-|
|-5-3---5-|-1-0---1-|--------|-1-1-1-1-1-1-1-1-1-1-1-|-3-3-3-3-3-3-3-3-3-3-|
|-----5---|-----2---|-2-0----|-2-2-2-2-2-2-2-2-2-2-2-|-4-4-4-4-4-4-4-4-4-4-|
|---------|---------|-----3--|-3-3-3-3-3-3-3-3-3-3-3-|-5-5-5-5-5-5-5-5-5-5-|
|---------|---------|--------|-3-3-3-3-3-3-3-3-3-3-3-|-5-5-5-5-5-5-5-5-5-5-|
|---------|---------|--------|-1-1-1-1-1-1-1-1-1-1-1-|-3-3-3-3-3-3-3-3-3-3-|

Chorus 3
Bass Guitar & Piano 
|----------|---------|
|----------|---0-2-3-|
|---0-2-3--|-3-------|
|-3--------|---------|

Guitar
|----------|--------1-|
|----------|--5-----1-|
|----------|--5-----2-|
|----------|--5-----3-|
|----------|--3-----3-|
|----------|--------1-|

Outro
CMaj7
|-7------------------|
|-5------------------|
|-5------------------|
|-5------------------|
|--------------------|
|--------------------|

Brass Section Outro
|--------------------|
|-5-3---5------------|
|-----5--------------|
|--------------------|
|--------------------|
|--------------------|

|--------------------|
|-----------8------8-|
|-------------10-9---|
|--------------------|
|--------------------|
|--------------------|

Structure
Verse x2
Chorus 1
Verse x2
Chorus 2
Bridge x2
Chorus 3
Verse x2
Chorus 4
Outro

Once Again, R.I.P To The Real Show Man: James Brown!
Suggest correction
Give kudos to tab author, rate the tab!
1 2 3 4 5
comments
print report bad tab
guest
You may want to rate the tab now too:
select rating
Wanna post a correction for this tab? Suggest correction