Oops, an error
Loading. Please wait.

Funk 49 Bass Tab

version 2
version 2

Whole song

Interactive

2,866 views 15 this week
no commentswrite comment
1 2 3 4 5
excellent!
x 3
add to favorites
launch autoscroll
font size
0
reset
guitar tuner
Autoscroll
slow
fast
+/-
esc
set tempo
stop
Help us to improve Ultimate-Guitar.com Take our survey!
×
Author
Difficulty
intermediate
There's a good reason why this is called "Funk" 49 !

Tabbed by: BASSteve

Tuning: EADG

Time signature: 4/4

r = rest (listen for duration)
h = hammer on
p = pull off
\ = slide (high to low)
^ = bend (listen for pitch and release characteristics)
||= measure gets repeated (see number of times above measure, e.g. 4x)

*My tabs are meant to be read in conjunction with listening to the song.
In other words, there are no specific notations to account for note/rest duration. 
However, you will find that I've made an attempt to strategically space the notes 
and rests within their respective measures in order to represent the appropriate 
durations.



INTRO
   
   7x
G||--------------------------------||--------------------------------|
D||r-------------------------------||r---------------7---5-----------|
A||--------------------------------||------------------------7-------|
E||--------------------------------||--------------------------------|



PRE-VERSE 1

|--------------------------------|--------------------------------|
|--------------------------------|5---7-r-----5---7---5-----------|
|----------------5---7-r-----7---|------------------------7---6---|
|5-------r---5-------------------|--------------------------------|



|--------------------------------|--------------------------------|
|------------------------5h--7---|7---5---------------------------|
|5-------r-------5h--7-----------|------------7-------5-----------|
|------------5-------------------|----------------------------3---|


 
VERSE 1
                
|--------------------------------|--------------------------------|
|--------------------------------|5---7-r---------7---5-----------|
|----------------5---7-r-----7---|------------------------7---6---|
|5-------r---5-------------------|--------------------------------|



|--------------------------------|7---5---------------------------|
|----------------5h--7-r-----7---|------------7-------5-------5---|
|5-------r---5-------------------|--------------------------------|
|--------------------------------|--------------------------------|



|--------------------------------|--------------------------------|
|7---5---------------------------|--------7-------r---7-----------|
|--------7---5-------------------|5h--7-------------------7-------|
|----------------5-------r---5---|--------------------------------|



|--------------------------------|7---5---------------------------|
|----------------5h--7-r-----7---|------------7-------5-------5---|
|5-------r---5-------------------|--------------------------------|
|--------------------------------|--------------------------------|



CHORUS

  2x
||--------------------------------|--------------------------------|
||7---5---------------------------|--------------------------------|
||--------7---5---r---3---r-------|--------------------------------|
||----------------------------3---|5---r-----------5---------------|



|--------------------------------|--------------------------------||
|7---5---------------------------|--------------------------------||
|--------7---5---r---3---r-------|--------------------------------||
|----------------------------3---|5-------------------------------||



|--------------------------------|--------------------------------|
|9---7---------------------------|--------------------------------|
|--------9---7---r---5---r-------|--------------------------------|
|----------------------------5---|7---r-----------7---------------|



|--------------------------------|--------------------------------|
|9---7---------------------------|--------------------------------|
|--------9---7---r---5---r-------|--------------------------------|
|----------------------------5---|7-------------------------------|



|--------------------------------|--------------------------------|
|9---7---------------------------|--------------------------------|
|--------9---7---r---5---r-------|--------------------------------|
|----------------------------5---|7---r-----------7---------------|



|--------------------------------|--------------------------------|
|9---7---------------------------|--------------------------------|
|--------9---7---r---5---r-------|--------7-----------------------|
|----------------------------5---|7---r---------------------------|



PRE-VERSE 2

|--------------------------------|--------------------------------|
|----------------7---------------|--------------------------------|
|----5-r---------------------7---|------------------------5---7---|
|5-------------------------------|5---5---r-------5---8-----------|



|--------------------------------|7---5---------------------------|
|----------------5h--7-------7---|------------7-------5-------5---|
|5-----------5-------------------|--------------------------------|
|--------------------------------|--------------------------------|



VERSE 2

|--------------------------------|--------------------------------|
|7---5---------------------------|--------7-------r---7-----------|
|--------7---5-------------------|5h--7-------------------7-------|
|----------------5-------r---5---|--------------------------------|



|--------------------------------|--------------------------------|
|----------------5h--7-r-----5---|7---5---------------------------|
|5-------r---5-------------------|------------7-------5---3-------|
|--------------------------------|----------------------------3---|



|--------------------------------|--------------------------------|
|--------------------------------|5---7-r---------7---5-----------|
|----------------5---7-r-----7---|------------------------7---6---|
|5-------r---5-------------------|--------------------------------|



|--------------------------------|7---5---------------------------|
|----------------5h--7-r-----7---|------------7-------5-------5---|
|5-------r---5-------------------|--------------------------------|
|--------------------------------|--------------------------------|



[CHORUS]



PRE-INTERLUDE

|--------------------------------|--------------------------------|
|----------------7---------------|--------------------------------|
|----5-r---------------------7---|------------------------5---7---|
|5-------------------------------|5---5---r-------5---8-----------|



|--------------------------------|7---5---------------------------|
|----------------5h--7-------7---|--------7-------\---------------|
|5-----------5-------------------|--------------------------------|
|--------------------------------|--------------------------------|



INTERLUDE (no bass)



INTRO 2
   
   7x
G||--------------------------------||--------------------------------|
D||r-------------------------------||r---------------7-7-7-7-7-7-5---|
A||--------------------------------||------------------------------7-|
E||--------------------------------||--------------------------------|



PRE-VERSE 3

|--------------------------------|--------------------------------|
|--------------------------------|5---7-r---------7---5-----------|
|----------------5---7-r-----7---|------------------------7---6---|
|5---5---r---5-------------------|--------------------------------|



|--------------------------------|7---5---------------------------|
|----------------5h--7-r-----7---|------------7-------5-------5---|
|5-------r---5-------------------|--------------------------------|
|--------------------------------|--------------------------------|



[VERSE 2]


 
[CHORUS]



OUTRO

|--------------------------------|--------------------------------|
|--------------------------------|5---7-r-----5---7---5-----------|
|----------------5---7-r-----7---|------------------------7---6---|
|5-------r---5-------------------|--------------------------------|



|--------------------------------|--------------------------------|
|------------------------5h--7---|7---5---------------------------|
|5-------r-------5h--7-----------|------------7-------5-----------|
|------------5-------------------|----------------------------3---|



|--------------------------------|--------------------------------|
|----------------7---------------|--------------------------------|
|----5-r---------------------7---|------------------------5---7---|
|5-------------------------------|5---5---r-------5---8-----------|



|--------------------------------|7---5---------------------------|
|----------------5h--7-------7---|------------7-------5-------5---|
|5-----------5-------------------|--------------------------------|
|--------------------------------|--------------------------------|



|--------------------------------|--------------------------------|
|7---5---------------------------|--------7-------r---7-----------|
|--------7---5-------------------|5h--7-------------------7-------|
|----------------5-------r---5---|--------------------------------|



|--------------------------------|7---5---------------------------|
|----------------5h--7-r-----7---|------------7-------5-------5---|
|5-------r---5-------------------|--------------------------------|
|--------------------------------|--------------------------------|


(continue this type of jam to fade)


                  (PLEASE RATE THIS TAB / LEAVE COMMENT)
Suggest correction
Give kudos to tab author, rate the tab!
1 2 3 4 5
comments
print report bad tab
guest
You may want to rate the tab now too:
select rating
Please do not post tabs as comments. Select "correction" instead!