Oops, an error
Loading. Please wait.
We have Chord Pro version of Funk 49.
It's the closest thing you can get to the original song and it has interactive parts. Check out the tab »
×

Funk 49 bass

version 3
version 3

Whole song

  • In time standardized format (one dash ("-") = 1/16 note).

Interactive

94 views 6 this week
no commentswrite comment
1 2 3 4 5
3 more votes to show rating
add to favorites
×
Save as Personal and add changes to this tab that will be seen only by you. Learn more ›
×
You can save this tab as Personal to edit and correct it or add notes. All changes will be seen only by you. Learn more »
launch autoscroll
font size
0
reset
guitar tuner
backing track
0:00
0:00
edit
Autoscroll
slow
fast
+/-
esc
set tempo
stop
Author
Difficulty
About this tab version
In time standardized format (one dash ("-") = 1/16 note). Was this info helpful? Yes No
James Gang
Funk #49
bass tab
EADG

G|----------------|----------------|----------------|
D|------------75--|-------057-075--|------5-75------|
A|--------------7-|---057--------76|5--.57-7---7-650|
E|----------------|5---------------|----------------|

[verse 1]
G|----------------|-------.75------|----------------|-------.75------|
D|-------057-075--|---.57-----7-5^7|75--------7-----|---.57-----7-5^7|
A|---057--------76|5---------------|--7----057---06-|5---------------|
E|5---------------|----------------|---5------------|----------------|

[theme]
G|----------------|----------------|
D|75--------------|75--------------|*
A|--75-3----------|--75-3----------|*
E|-------35-..5---|-------35^~-----|

G|----------------|----------------|----------------|----------------|
D|97--------------|97--------------|97--------------|97--------------|
A|--97-5----------|--97-5----------|--97-5----------|--97-5----7-----|
E|-------57-..7---|-------57^~-----|-------57-..7---|-------57-------|

G|----------------|-------.75------|
D|---7----------7-|---.57-----7-5^7|
A|-------7---056-6|5---------------|
E|56------5-------|----------------|

[verse 2]
G|----------------|----------------|----------------|-------.75------|
D|75--------7-----|---.57--75------|-------.57--75--|---.57-----7-5^7|
A|--7----057---06-|5----------7-6-5|---.57--------76|5---------------|
E|---5------------|----------------|5---------------|----------------|

[theme 2]
G|----------------|--------75------|
D|---7----------7-|---.57----7-----|
A|-------7---056-6|5---------------|
E|56------5-------|----------------|

  after drum solo
G|----------------|----------------|--------75------|
D|--------7777775-|-------057-.75--|---.57-----7-5^7|
A|---------------7|---.57--------76|5---------------|
E|----------------|5---------------|----------------|

[verse 3](2)
[theme 3]

[outro]
G|----------------|----------------|----------*-----|--------75------|
D|-------.57--75--|------5-75------|---7----------7-|---.57-----7-5^7|
A|---.57--------76|5--.57-7---7-6-5|-------7---.56-6|5---------------|
E|5---------------|----------------|56------5-------|----------------|

G|----------------|--------75------|----------------|----------------|
D|75-------05775--|---.57-----7-5^7|75-------05775--|---.57--75------|
A|--7---57------76|5---------------|--7---57------76|5----------7-6-5|
E|---5------------|----------------|---5------------|----------------|

G|----------------|--------75------|----------------|----------------|
D|-------.57-7-75-|---.57-----7-5^7|75-------05775--|04-5-6-7--------|
A|---.57---------7|5---------------|--7---57------76|--------04-5-6-7|
E|5---------------|----------------|---5------------|----------------|

G|----------------|-------075------|----------------|-------.75------|
D|57-7-7--------7-|---.57-----7-5^7|75--------7-----|---.57-----7-5^7|
A|------570--056-6|5---------------|--7----057---06-|5---------------|
E|----------------|----------------|---5------------|----------------|

G|06-7-8-8--------|--------75--------|
D|--------75------|04-5-6-0---7-5--|7|
A|-----------7-6-0|---------------0--|
E|----------------|------------------|-..

****************************************************

| /  slide up
| \  slide down
| .   incidental note (usually open string)
| ^   pre-struck note (hammer-on, pull-off)
| =   rest

other punctuation
= percussion cues

****************************************************

time standardized format
one dash ("-") = 1/16 note
display in fixed-width font

tabbed by
spaceyhippie
dudeman.net/jam
Suggest correction
Creating personal tab
Creating personal tab
You can edit any tab online and save it as your Personal.

You can edit, replace or remove any tab part or add personal notes – all changes will be seen only by you.

Personal tabs can be accessed anytime from any device, even offline.
Learn more »
Give kudos to tab author, rate the tab!
1 2 3 4 5
comments
print report bad tab
guest
You may want to rate the tab now too:
select rating
Wanna post a correction for this tab? Suggest correction