Oops, an error
Loading. Please wait.

Broken Strings Bass Tab

version 3
version 3

Whole song

Interactive

922 views 3 this week
no commentswrite comment
1 2 3 4 5
please rate
add to favorites
launch autoscroll
font size
0
reset
guitar tuner
Autoscroll
slow
fast
+/-
esc
set tempo
stop
Help us to improve Ultimate-Guitar.com Take our survey!
×
Author
Difficulty
G ----------------------------------------------------------------------|
D -----------1~-------------------------------11111111------------------|
A 1~--1~-4~-------------------------------------------11111111/44444444-|
E --2~-----2~--2~-4~-6~-2~-4~-1~--2~-4~-1~--2~--------------------------|

G --------|
D --------|
A --------|
E 44444444

G ---------------------------------------------------------------------|
D 11111111-------------------------------------------------------------|
A --------11111111/44444444----------------11111111/44444444--------1~-|
E -------------------------4444444422222222-----------------22222222---|

G ---------------------------------|
D 11111111-------------------------|
A --------11111111-----------------|
E ----------------4444444444444444-|

G -------------------------------------------------------------------------|
D -----------1~------------------------------------------------------------|
A 1~--1~-4~----1111111111111111----------------11111111/44444444--------1~-|
E --2~-----2~------------------2222222222222222-----------------22222222---|

G ----------------------------------------------------------------------------|
D --------------------------------------------------11111111------------------|
A ----------------------------------------------------------11111111/44444444-|
E 2222444466666666222244441111111122224444111111112~--------------------------|

G ---------------------------------------------------------------------------|
D --------11111111-----------------------------------------------------------|
A ----------------11111111/44444444----------------11111111/44444444---------|
E 44444444-------------------------4444444422222222-----------------44444444-|

G --------------------------------------------------------------------------|
D 11111111------------------------------------------------------------------|
A --------11111111------------------------11111111/44444444-----------------|
E ----------------444444444444444422222222-----------------2222222222222222-|

G --------------------------------------------------------------------|
D -------------------1~-----------------------------------------------|
A 11111111/44444444----1~/4~----------------11111111/44444444---------|
E -----------------1~-------4444444422222222-----------------44444444-|

G ----------------------------------------------------------------------|
D 11111111--------------------------------------------------------------|
A --------11111111------------------------11111111----------------1~/4~-|
E ----------------444444444444444422222222--------4444444444444444------|
Suggest correction
Give kudos to tab author, rate the tab!
1 2 3 4 5
comments
print report bad tab
guest
You may want to rate the tab now too:
select rating
Wanna post a correction for this tab? Suggest correction