Oops, an error
Loading. Please wait.
We have Chord Pro version of Broken Strings.
It's the closest thing you can get to the original song and it has interactive parts. Check out the tab »
×
68,904 views 15 this week
1 commentread comment
1 2 3 4 5
1 last vote to show rating
add to favorites
launch autoscroll
font size
0
reset
transpose
0
reset
display chords
guitar tuner
Autoscroll
slow
fast
+/-
esc
set tempo
stop
Author
Strumming
There is no strumming pattern for this song yet. and get +5 IQ
Artist: James Morrison
Song: Broken Strings

[Pre-Chorus]
        G         Am          B
e|------3---------5-----------7-----------------------------------------------|
B|------3---------5-----------7-----------------------------------------------|
G|------4---------6-----------8-----------------------------------------------|
D|------5---------7-----------9-----------------------------------------------|
A|------5---------7-----------9-----------------------------------------------|
E|------3---------5-----------7-----------------------------------------------|
        
        G         Am          F#m
e|------3---------5-----------2-----------------------------------------------|
B|------3---------5-----------2-----------------------------------------------|
G|------4---------6-----------2-----------------------------------------------|
D|------5---------7-----------4-----------------------------------------------|
A|------5---------7-----------4-----------------------------------------------|
E|------3---------5-----------2-----------------------------------------------|

[Chorus]
          Dm        Am         C          Am
e|--------5---------5----------8----------5----------------------------------|
B|--------6---------5----------8----------5----------------------------------|
G|--------7---------6----------9----------6----------------------------------|X2
D|--------7---------7---------10----------7----------------------------------|
A|--------5---------7---------10----------7----------------------------------|
E|------------------5----------8----------5----------------------------------|

           F          Am        C        Am
e|---------8----------5---------8---------5----------------------------------|
B|--------10----------5---------8---------5----------------------------------|
G|--------10----------6---------9---------6----------------------------------|
D|--------10----------7--------10---------7----------------------------------|
A|---------8----------7--------10---------7----------------------------------|
E|--------------------5---------8---------5----------------------------------|

[Verse]
          Am        C       F       Am      C      F       Dm
e|--------5---------8-------8-------5-------8------8-------5-----------------|
B|--------5---------8------10-------5-------8-----10-------9-----------------|
G|--------6---------9------10-------6-------9-----10-------7-----------------|X2
D|--------7--------10------10-------7------10-----10-------7-----------------|
A|--------7--------10-------8-------7------10------8-------5-----------------|
E|--------5---------8---------------5-------8--------------------------------|

[Chorus]
          Dm        Am         C          Am
e|--------5---------5----------8----------5----------------------------------|
B|--------6---------5----------8----------5----------------------------------|
G|--------7---------6----------9----------6----------------------------------|X2
D|--------7---------7---------10----------7----------------------------------|
A|--------5---------7---------10----------7----------------------------------|
E|------------------5----------8----------5----------------------------------|

           F          Am        C        Am
e|---------8----------5---------8---------5----------------------------------|
B|--------10----------5---------8---------5----------------------------------|
G|--------10----------6---------9---------6----------------------------------|
D|--------10----------7--------10---------7----------------------------------|
A|---------8----------7--------10---------7----------------------------------|
E|--------------------5---------8---------5----------------------------------|

[Verse]
          Am        C       F       Am      C      F       Dm
e|--------5---------8-------8-------5-------8------8-------5-----------------|
B|--------5---------8------10-------5-------8-----10-------9-----------------|
G|--------6---------9------10-------6-------9-----10-------7-----------------|X2
D|--------7--------10------10-------7------10-----10-------7-----------------|
A|--------7--------10-------8-------7------10------8-------5-----------------|
E|--------5---------8---------------5-------8--------------------------------|

[Final Chorus]
             Dm    Am    C    G     Dm    Am   C    G    F    Am    C   G
e|-----------5-----5-----8---10------5-----5---8---10----8-----5----8--10----|
B|-----------6-----5-----8---11------6-----5---8---11---10-----5----8--11----|
G|-----------7-----6-----9---12------7-----6---9---12---10-----6----9--12----|
D|-----------7-----7----10---12------7-----7--10---12---10-----7---10--12----|
A|-----------5-----7----10---10------5-----7--10---10----8-----7---10--10----|
E|-----------------5-----8-----------------5---8---------------5----8--------|
 
[Outro]
             Am       C     F      Dm
e|-----------5--------8-----8-------5----------------------------------------|
B|-----------5--------8----10-------6----------------------------------------|
G|-----------6--------9----10-------7----------------------------------------|
D|-----------7-------10----10-------7----------------------------------------|
A|-----------7-------10-----8-------5----------------------------------------|
E|-----------5--------8------------------------------------------------------| 
Suggest correction
Give kudos to tab author, rate the tab!
1 2 3 4 5
comments
print report bad tab
1 comment total.
0 reply
guitarwarrior07 168 Mar 25, 2009 09:07 AM

sounds good... just think he tuned his guitar half step down

guest
You may want to rate the tab now too:
select rating
Wanna post a correction for this tab? Suggest correction