Oops, an error
Loading. Please wait.

Dream On Hayley Chords

version 1
version 1

Whole song

7,868 views 3 this week
no commentswrite comment
1 2 3 4 5
please rate
add to favorites
launch autoscroll
font size
0
reset
transpose
0
reset
simplify chords
display chords
guitar tuner
Tab Pro tools
  • play this tab
  • loop segment
  • change instrument
  • show fretboard
  • metronome
×
Best way to learn
"Dream On Hayley"
Autoscroll
slow
fast
+/-
esc
set tempo
stop
Difficulty
intermediate
James Morrison:  Dream on Hayley.

   C# Bbm7  Fm7   Fm11  G#7sus4 G#7      F/A Bbm7
---x--x-----x-----x-----x-------x--------x---6---x-|
---6--6-----x-----x-----4-------4--------6---6---6-|
---6--6-----1-----3-----6-------5--------5---6---6-|
---6--6-----1-----1-----4-------4--------3---6---6-|
---4--8-----3-----3-----6-------6--------x---8---x-|
---x--6-----1-----1-----4-------4------4-5-5-6---x-|

C#          Bbm7      
Some people sleep easy
Fm7         Fm11
some people dont
G#7sus4       G#7
seeking the light on
F/A         Bbm7
start to feel so alone
C#          Bbm
Some people make it better
Fm7          Fm11
some make it worse
G#7sus4        G#7  
you thought he held you lightly
F/A          Bbm7
yeah he got you where it hurts

 F#7 F#m7  G#7sus4  G#7
-2---2-----4--------4--|
-2---2-----4--------4--|
-3---2-----6--------5--|
-2---2-----4--------4--|
-4---4-----6--------6--|
-2---2-----4--------4--|


F#7
you're not the one
F#m7                 
you're not the one 
G#7sus4    G#7
to pay

         D#m9      A13b5  G#7sus4 C#
---------x----6----x------x-------------------------------|
---------6----6----x------x-------6-----------------------|
---------6----6----6------6-------6-----------------------|
-6-8-----4----4----4------4-------6---6-8-----------------|
-----6---6----6----6------6-------4-------6---------------|
---------6----6----5------4-------x-----------------------|

D#m9
but dream on hayley
                      A13b5  G#7sus4   C#            G# A          
dont look down there's nothing here for you to see
D#m9
dream on hayley
                      A13b5  G#7sus4   C#            G# A          
you're just about there, dont give up so easily
D#m9
dream on hayley

 C#m9  Fm7  Bbm7/E  F#m7 G#7sus4 G#7
-4-----1----1-------2----4-------4-----------------------|
-4-----5----2-------2----4-------4-----------------------|
-6-----1----1-------2----6-------5-----------------------|
-6-----1----3-------2----4-------4-----------------------|
-4-----3----1-------4----6-------6-----------------------|
-x-----1----?-------2----4-------4-----------------------|

C#m9                       
if you dont feel loved, then 
Fm7(add high7th)      E 
dreaming is the way to go..
F#
i know 
G#sus4
I know
G#7
I know

C#              Bbm
some people trust too much
Fm
sometimes that you
G#7sus4          G#7
it shouldnt be a bad thing
F/A           Bbm
its more than I could do
C#               Bbm
so much disappointment, 
Fm
over the years
G#7sus4               G#7                      
you're willing to love completely, 
F/A            Bbm
but it always ends in tears
F#
youre not mad, 
F#m         G#7sus4
not so mad, to me



D#m9 
but dream on hayley
                      A13b5  G#7sus4   C#            G# A          
dont look down there's nothing here for you to see
D#m9
dream on hayley
                      A13b5  G#7sus4   C#            G# A          
you're just about there, dont give up so easily
D#m9
dream on hayley

C#m9                       
if you dont feel loved, then 
Fm7                     E
dreaming is the way to go..
F#    
dream on  
G#
dream on 
G#7
I can help you ... ohhh
E7      F#

G#sus4       G#7
You gotta keep dreaming on

D#m9
Dream on Hayley
Dream on Hayley

D#m9
Dream on Hayley
Don't look down
A13b5        G#sus4            C#                 G# A
There's nothing here for you to see

D#m9
Dream on Hayley
You're just about there
D#m9/A        G9  
Don't give up so easily
If you don't feel love
Then dreaming is the way to go
E          F#         G#m7     G#sus4    G#7
way to go, way to go, way to go

;Okay this might be a bit off, I suspect it probably plays better
;drop tuned to Eb and played as a C.. Bm7, etc. Also Im not sure if
;that's actually a A13b5 to G#7sus4, it might have a friendlier form,
;Amaj7 add 9 with a G#7 sharp 9 ??.. I listened til my ears hurt, cant quite
;nail it to my liking, Im leaning of late towards this...
;
;alternate chord possibility in the chorus...
D#m9   Amaj7add9  G#7 sharp 9  C#
6------x----------x------------x--------|
6------x----------x------------6--------|
6------4----------4------------6--------|
4------6----------4------------6--6-8---|
6------4----------3------------4------6-|
x------5----------4------------x--------|
 ......dont give up so easily
comments
We did not receive enough feedback on this tab! Please rate:
print report bad tab
1 2 3 4 5
I want to post or [tab]
guest
You may want to rate the tab now too:
select rating
Please do not post tabs as comments. Select "correction" instead!