Oops, an error
Loading. Please wait.

Love Is Hard Tab

version 1
version 1

Whole song

3,337 views 15 this week
no commentswrite comment
1 2 3 4 5
1 last vote to show rating
add to favorites
launch autoscroll
font size
0
reset
how to read this tab
guitar tuner
Autoscroll
slow
fast
+/-
esc
set tempo
stop
Help us to improve Ultimate-Guitar.com Take our survey!
×
Author
Hey! I tried finding a tab for this, but could not find any complete ones, so I decided
to sit down and figure it out. When i figured out how to play it I thought I should
write it down to remember it myself, but also thought that since I were going to do it I 
could as well post it to UG. Problem is that it took more time than expected, so at 
1:15 I
stopped. When you've listened/played to 1:15 you have listended/played all the different 
guitar parts, so it should not be a problem (I personally prefer complete songs, so I 
understand if it is a little annoying).

I've seen a couple of live performances of Morrison, and a lot of this is not exactly
how it is played, but I believe it still is pretty accurate. Enjoy!
Edit: I do realize that the chorus is pretty inaccurate. I am sorry for that.

(Standard tuning, no capo)

Intro (0:00)
E|------------------------10-10-----8-8------------------------10-10-----8-8-|
B|-----10-10----10-10-----------------------10-10----10-10-------------------|
G|---------------------------------------------------------------------------|
D|---------------------------------------------------------------------------|
A|---8------8-8-------8-8-------8-8-----8-8------8-8-------8-8-------8-8-----|
E|-8-------------------------------------------------------------------------|


Verse (x2) (0:10
E|-------------------------10-10-----8-8--|
B|-----10-10-----10-10--------------------|
G|----------------------------------------|
D|----------------------------------------|
A|-8-8-------8-8-------8-8-------8-8------|
E|----------------------------------------|


Verse-ending (0:19)
E|---5-------5-------5-------5---3---3h1-----3h1-----3h1-----3--------|
B|-----6-------6-------6-----------------1-------1-------1------------|
G|-------7-------7-------7--------------------------------------------|
D|--------------------------------------------------------------------|
A|-5-------5-------5-------5---3---1-------1-------1-------1--------8-|
E|-------------------------------------------------------------8h10---|


Verse 2 (0:28)
E|----------------------10-10-----8-8-------------------------10-10-----8-8---|
B|---10-10-----10-10-----------------------10-10-----10-10--------------------|
G|----------------------------------------------------------------------------|
D|----------------------------------------------------------------------------|
A|8-------8-8-------8-8-------8-8-----8-8-------8-8-------8-8-------8-8-------|
E|----------------------------------------------------------------------------|


Verse-ending 2 (0:37)
E|---5-------5-------5-------5---3---3h1-----3h1---3h1-----3---3-|
B|-----6-------6-------6-----------------1-------------1---------|
G|-------7-------7-------7---------------------------------------|
D|---------------------------------------------------------------|
A|-5-------5-------5-------5---3---1-------1-----1-------1---0---|
E|---------------------------------------------------------------|



E|---3-------3-------3-------3---------------------3---|
B|-----5-------5-------5-------5-----5-5-----6-6-------|
G|-------5-------5-------5-------5---------------------|
D|-----------------------------------------------------|
A|---------------------------------3-----3-3-----3-3---|
E|-3-------3-------3-------3---------------------------|


Chorus x3 (0:54)
E|-------------------------------|
B|---8-8-----8-8-----6-6-----6-6-|
G|-------------------------------|
D|-------------------------------|
A|-------------------------------|
E|-6-----6-6-----6-6-----6-6-----|


Chorus-ending (1:08)
E|-------------------------------------------------------------|
B|---6-------8-------10---------10---------11-11-----11-11---8-|
G|-----7-------9--------10---------10--------------------------|
D|-------7-------9---------10---------10-----------------------|
A|-5-------7-------8----------8----------8-------8-8-------8-8-|
E|-------------------------------------------------------------|
Suggest correction
Give kudos to tab author, rate the tab!
1 2 3 4 5
comments
print report bad tab
guest
You may want to rate the tab now too:
select rating
Wanna post a correction for this tab? Suggest correction