Oops, an error
Loading. Please wait.

Pieces Dont Fit Anymore Tab

version 1
version 1

Whole song

5,750 views 1 this week
no commentswrite comment
1 2 3 4 5
please rate
add to favorites
launch autoscroll
font size
0
reset
how to read this tab
guitar tuner
Autoscroll
slow
fast
+/-
esc
set tempo
stop
Help us to improve Ultimate-Guitar.com Take our survey!
×
Contributor
Difficulty
novice
----------------------------------------------------------------------------
                     The Pieces Dont Fit - James Morrison
----------------------------------------------------------------------------
Tabbed by: Rockdude666
Email and MSN: satan_wants_fun666@hotmail.co.uk

Tuning: EADGBe (standard)
* = SOFTLY Palm Mute (so it still rattles a bit)
~ = LET RING

I have tabbed this song in a rock style for those bands like mine who want to play 
a little different!! I will also do a bass version if this one is liked!!


INTRO
e|---------------------------------------------------|
B|---------------------------------------------------|
G|-6-6-6-6-6-6-6-6-6-6-6-6---3-3-3-3-3-3-3-3-3-3-3-3-|
D|-6-6-6-6-6-6-6-6-6-6-6-6---3-3-3-3-3-3-3-3-3-3-3-3-|
A|-4-4-4-4-4-4-4-4-4-4-4-4---1-1-1-1-1-1-1-1-1-1-1-1-|
E|---------------------------------------------------|
   * * * * * * * * * * * *   * * * * * * * * * * * *

VERSE 1
e|---------------------------------------------------|
B|---------------------------------------------------|
G|-6-6-6-6-6-6-6-6-6-6-6-6---3-3-3-3-3-3-3-3-3-3-3-3-|
D|-6-6-6-6-6-6-6-6-6-6-6-6---3-3-3-3-3-3-3-3-3-3-3-3-| X2
A|-4-4-4-4-4-4-4-4-4-4-4-4---1-1-1-1-1-1-1-1-1-1-1-1-|
E|---------------------------------------------------|
   * * *   * * * * *   * *   * * *   * * * * *   * *

Then
e|-----------------------------------------------------|
A|-----------------------------------------------------|
D|---------------3-3-3-3-3-3---6-6-6-6-6-6-6-6-6-6-6-6-|
G|-4-4-4-4-4-4---3-3-3-3-3-3---6-6-6-6-6-6-6-6-6-6-6-6-|
B|-4-4-4-4-4-4---1-1-1-1-1-1---4-4-4-4-4-4-4-4-4-4-4-4-|
E|-2-2-2-2-2-2-----------------------------------------|
   * * *   * *   * * *   * *   * * *   * * * * *   * *

e|-----------------------------------------------------|
B|-----------------------------------------------------|
G|-3-3-3-3-3-3-----------------6-6-6-6-6-6-6-6-6-6-6-6-|
D|-3-3-3-3-3-3---4-4-4-4-4-4---6-6-6-6-6-6-6-6-6-6-6-6-|
A|-1-1-1-1-1-1---4-4-4-4-4-4---4-4-4-4-4-4-4-4-4-4-4-4-|
E|---------------2-2-2-2-2-2---------------------------|
   * * *   * *   * * *   * *   * * *   * * * * *   * *

CHORUS
e|-------------------------------------------------------|  |------------|
B|-------------------------------------------------------|  |------------|
G|---------------8-8-8-8-8-8---3-3-3-3-3-3---6-6-6-6-6-6-|  |----8~~~6~~~|
D|-4-4-4-4-4-4---8-8-8-8-8-8---3-3-3-3-3-3---6-6-6-6-6-6-|X4|4~~~8~~~6~~~|
A|-4-4-4-4-4-4---6-6-6-6-6-6---1-1-1-1-1-1---4-4-4-4-4-4-|  |4~~~6~~~4~~~|
E|-2-2-2-2-2-2-------------------------------------------|  |2~~~--------|


VERSE 2
e|---------------------------------------------------|
B|---------------------------------------------------|
G|-6-6-6-6-6-6-6-6-6-6-6-6---3-3-3-3-3-3-3-3-3-3-3-3-|
D|-6-6-6-6-6-6-6-6-6-6-6-6---3-3-3-3-3-3-3-3-3-3-3-3-| X2
A|-4-4-4-4-4-4-4-4-4-4-4-4---1-1-1-1-1-1-1-1-1-1-1-1-|
E|---------------------------------------------------|
   * * *   * * * * *   * *   * * *   * * * * *   * *

Then
e|-----------------------------------------------------|
A|-----------------------------------------------------|
D|---------------3-3-3-3-3-3---6-6-6-6-6-6-6-6-6-6-6-6-|
G|-4-4-4-4-4-4---3-3-3-3-3-3---6-6-6-6-6-6-6-6-6-6-6-6-|
B|-4-4-4-4-4-4---1-1-1-1-1-1---4-4-4-4-4-4-4-4-4-4-4-4-|
E|-2-2-2-2-2-2-----------------------------------------|
   * * *   * *   * * *   * *   * * *   * * * * *   * *

e|-----------------------------------------------------|
B|-----------------------------------------------------|
G|-3-3-3-3-3-3-----------------6-6-6-6-6-6-6-6-6-6-6-6-|
D|-3-3-3-3-3-3---4-4-4-4-4-4---6-6-6-6-6-6-6-6-6-6-6-6-|
A|-1-1-1-1-1-1---4-4-4-4-4-4---4-4-4-4-4-4-4-4-4-4-4-4-|
E|---------------2-2-2-2-2-2---------------------------|
   * * *   * *   * * *   * *   * * *   * * * * *   * *

CHORUS
e|-------------------------------------------------------|  |------------|
B|-------------------------------------------------------|  |------------|
G|---------------8-8-8-8-8-8---3-3-3-3-3-3---6-6-6-6-6-6-|  |----8~~~6~~~|
D|-4-4-4-4-4-4---8-8-8-8-8-8---3-3-3-3-3-3---6-6-6-6-6-6-|X4|4~~~8~~~6~~~|
A|-4-4-4-4-4-4---6-6-6-6-6-6---1-1-1-1-1-1---4-4-4-4-4-4-|  |4~~~6~~~4~~~|
E|-2-2-2-2-2-2-------------------------------------------|  |2~~~--------|


BRIDGE
e|-------------------------------------------------------|
B|-------------------------------------------------------|
G|-----------------------------3-3-3-3-3-3---8-8-8-8-8-8-|
D|-5-5-5-5-5-5---3-3-3-3-3-3---3-3-3-3-3-3---8-8-8-8-8-8-|
A|-5-5-5-5-5-5---3-3-3-3-3-3---1-1-1-1-1-1---6-6-6-6-6-6-|
E|-3-3-3-3-3-3---1-1-1-1-1-1-----------------------------|

e|---------------------------------------|
B|---------------------------------------|
G|---------------------------------------|
D|-4-4-4-4-4-4---3-3-3-3-3-3-3-3-3-3-3-3-|
A|-4-4-4-4-4-4---3-3-3-3-3-3-3-3-3-3-3-3-|
E|-2-2-2-2-2-2---1-1-1-1-1-1-1-1-1-1-1-1-|


CHORUS
e|-------------------------------------------------------|  |------------|
B|-------------------------------------------------------|  |------------|
G|---------------8-8-8-8-8-8---3-3-3-3-3-3---6-6-6-6-6-6-|  |----8~~~6~~~|
D|-4-4-4-4-4-4---8-8-8-8-8-8---3-3-3-3-3-3---6-6-6-6-6-6-|X4|4~~~8~~~6~~~|
A|-4-4-4-4-4-4---6-6-6-6-6-6---1-1-1-1-1-1---4-4-4-4-4-4-|  |4~~~6~~~4~~~|
E|-2-2-2-2-2-2-------------------------------------------|  |2~~~--------|


OUTRO
e|------------|
B|------------|
G|----8~~~6~~~|
D|4~~~8~~~6~~~|
A|4~~~6~~~4~~~|
E|2~~~--------|
============================================================================

Thats it please note this IS my first tab but it sounds awesome like i said at the 
i'll a bass one if its wanted
Thanks
comments
We did not receive enough feedback on this tab! Please rate:
print report bad tab
1 2 3 4 5
I want to post or [tab]
guest
You may want to rate the tab now too:
select rating
Please do not post tabs as comments. Select "correction" instead!