Oops, an error
Loading. Please wait.

Up Tab

1,942 views 6 this week
no commentswrite comment
1 2 3 4 5
excellent!
x 1
add to favorites
launch autoscroll
font size
0
reset
how to read this tab
guitar tuner
Tab Pro tools
  • play this tab
  • loop segment
  • change instrument
  • show fretboard
  • metronome
Autoscroll
slow
fast
+/-
esc
set tempo
stop
Contributor
Up by James Morrison and Jesse Jay- Rossco125
Song is in standard tuning




        ||--------2-----------2------------0-----------0---------|| 
        ||----------3-----------3------------3-----------3-------||
Intro:  ||------4-----4-----4-----4------4-----4-----4-----4-----||
        ||----4-----------4------------4-----------4-------------||
        ||--2-----------0----------------------------------------||
        ||---------------------------3-----------0---------------||
                                                
        
        ||--------2-----------2------------0-------0--|| 
        ||----------3-----------3------------3-----0--||
        ||------4-----4-----4-----4------4-----4---1--||
        ||----4-----------4------------4-----------0--||
        ||--2-----------0--------------------------2--||
        ||---------------------------3-------------0--||
        
        ||--------------------|| 
        ||--------------------||
        ||--1---2-------------||
        ||--2---2-------------||
        ||------0-------------||
        ||--4-----------------||

        How can I find you when your always hiding from yourself...
Verse:  ||--------2-----------2------------0-----------0---------|| 
        ||----------3-----------3------------3-----------3-------||
        ||------4-----4-----4-----4------4-----4-----4-----4-----||
        ||----4-----------4------------4-----------4-------------||
        ||--2-----------0----------------------------------------||
        ||---------------------------3-----------0---------------||


        
         When you call i already hear that crashing sound....
        ||--------2-----------2------------0-------0--|| 
        ||----------3-----------3------------3-----0--||
        ||------4-----4-----4-----4------4-----4---1--||
        ||----4-----------4------------4-----------0--||
        ||--2-----------0--------------------------2--||
         ||---------------------------3-------------0--||

        Its Never to late to turn it back around...
Chorus: ||------------------------------------3---3---3---3--------|| 
        ||----3--------5-------7-------8--10---3---3---3---3--------||
        ||------4--------4-------5-------------4---4---4---4--------||
        ||--------4----------------7-----------5---5---5---5--------||
        ||--2--------4-------5---------7-------5---5---5---5--------||
        ||-------------------------------------3---3---3---3--------||



        The only way is up....

        ||--2-----2-----0-----0--|| 
        ||--3-----3-----3-----0--||
        ||--4-----4-----4-----1--||
        ||--4-----4-----4-----0--||
        ||--2-----0-----0-----2--||
        ||--------------3-----0--||



         I watch your spirit break as it shatters into a million pieces...
Verse:  ||--------2-----------2------------0-----------0---------|| 
        ||----------3-----------3------------3-----------3-------||
        ||------4-----4-----4-----4------4-----4-----4-----4-----||
        ||----4-----------4------------4-----------4-------------||
        ||--2-----------0----------------------------------------||
        ||---------------------------3-----------0---------------||

        When you call i already hear that crashing sound....
        ||--------2-----------2------------0-------0--|| 
        ||----------3-----------3------------3-----0--||
        ||------4-----4-----4-----4------4-----4---1--||
        ||----4-----------4------------4-----------0--||
        ||--2-----------0--------------------------2--||
        ||---------------------------3-------------0--||

         Its Never to late to turn it back around...                                            
Chorus: ||------------------------------------3---3---3---3--------|| 
        ||----3--------5-------7-------8--10---3---3---3---3--------||
        ||------4--------4-------5-------------4---4---4---4--------||
        ||--------4----------------7-----------5---5---5---5--------||
        ||--2--------4-------5---------7-------5---5---5---5--------||
        ||-------------------------------------3---3---3---3--------||

         The only way is up....
        ||--2-----2-----0-----0--|| 
        ||--3-----3-----3-----0--||
        ||--4-----4-----4-----1--||
        ||--4-----4-----4-----0--||
        ||--2-----0-----0-----2--||
        ||--------------3-----0--||


        Its your love thats strong....
Bridge: ||----------------------------------------------------|| 
        ||------3------3-------3------3-------3-------3-------||
        ||----2---2--2---2---2---2--2---2---2---2---2---2-----||
        ||--0--------------0--------------0-------------------||
        ||----------------------------------------------------||
        ||----------3--------------3--------------3-----------||

        ||-----------------------------------|| 
        ||------2-------2------3-------3-----||
        ||----3---3---3---3--1---1---1---1---||
        ||-----------------------------------||
        ||-----------------------------------||
        ||---2-------2------0------0---------||

 
         Its Never to late to turn it back around...                                            
Chorus: ||------------------------------------3---3---3---3--------|| 
        ||----3--------5-------7-------8--10---3---3---3---3--------||
        ||------4--------4-------5-------------4---4---4---4--------||
        ||--------4----------------7-----------5---5---5---5--------||
        ||--2--------4-------5---------7-------5---5---5---5--------||
        ||-------------------------------------3---3---3---3--------||

         The only way is up....
        ||--2-----2-----0-----0--|| 
        ||--3-----3-----3-----0--||
        ||--4-----4-----4-----1--||
        ||--4-----4-----4-----0--||
        ||--2-----0-----0-----2--||
        ||--------------3-----0--||

        When it all falls down
Ending: ||--2-----2-----0------|| 
        ||--3-----3-----3------||
        ||--4-----4-----4------||
        ||--4-----4-----4------||
        ||--2-----0-----0------||
        ||--------------3------||
comments
We did not receive enough feedback on this tab! Please rate:
print report bad tab
1 2 3 4 5
I want to post or [tab]
guest
You may want to rate the tab now too:
select rating
Please do not post tabs as comments. Select "correction" instead!