Oops, an error
Loading. Please wait.

You Make It Real Tab

6,697 views 42 this week
no commentswrite comment
1 2 3 4 5
excellent!
x 7
add to favorites
launch autoscroll
font size
0
reset
how to read this tab
guitar tuner
Tab Pro tools
  • play this tab
  • loop segment
  • change instrument
  • show fretboard
  • metronome
Autoscroll
slow
fast
+/-
esc
set tempo
stop
Intro/Verse
   Am    G       F      C          Am      G     F      C
e>-----------------1-x--0-----0--------------------1-x--0----0--0-------|
B>----0------3-----1-x--1--------------0-----3-----1-x--1----1----1-----|
G>----2------0-----2-x--0--------0----2-2---0-0----2-x--0----0------0---|
D>---0-----0---0-----x-------------------------------x-------2----------|
A>-0----0------------x-----3--------0----------------x-------3--------3-|
E>--------3------1---x---------------------3-----1---x-------0----------|
 Am            F                                           C
-------0------------1---------------3---4----------1-------0------------|
-------1------------1---------------3---5----------1-------1---1--------|
-----2-2------------2---------------4---4----------2-------0-----0------|
---2--------2-----3--------------5------6--------3---------2------------|
-3--------3-----3--------3-----5--------7------3--------3------------3--|
--------------1--------1-----3----------4----1--------1-----------------|
       Am          G       F    C
----0------0---------------1-x--0----0--0------------x-<
----1---1------------3-----1-x--1----1----1----------x-<
----0---2-----------0-0----2-x--0----0------0--------x-<
-0------2--------------------x-------2---------------x-<
--------------0--------------x-------3--------3------x-<
-------------------3-----1---x-------0---------------x-<
Verse 1:
                C                      Am
There's so much craziness surrounding me
                F                            G
There's so much going on it gets hard to breathe
     Am     F                                     C
When all my faith has gone you bring it back to me
Am               G             F   C
You make it real for me

Verse 2: Repeat Verse 1
When I'm not sure of my priorities
When I've lost sight of where I meant to be
Like holy water washing over me
You make it real for me

Chorus:
    G       Am     F                 C
And IIIIIIIII'm running to you baby
G    Am               F            C
  Youuuuuuuuu are the only one who saved me
       G     Am          F                     C
That's    whyyyyyyy I've been missing you lately
      Am                 G             F   C
Cause you make it real for me

Verse 3: Repeat Verse 1
When my head is strong but my heart is weak
I'm full of arrogance and uncertainty
When I can't find the words you teach my heart to speak
You make it real for me yeah

Chorus:
And IIIIIIIII'm running to you baby
  Youuuuuuuuu are the only one who saved me
That's    whyyyyyyy I've been missing you lately
Cause you make it real for me

Bridge:
G                           F                 C
    Everybody’s talking in words I don't understand
G                                    F              C
    You got to be the only one who knows just who I am
Em                                    F
    You’re shining in the distance I hope I can make it through
           D                                  G
Cause the only place that I want to be is right back home with you


Verse 4: Repeat Verse 1
I guess there's so much more I have to learn
But if you're here with me, I know which way to turn
You always give me somewhere, somewhere I can run
You make it real for me

Chorus:
    G       Am     F                 C
And IIIIIIIII'm running to you baby
G    Am               F            C
  Youuuuuuuuu are the only one who saved me
       G     Am          F                     C
That's    whyyyyyyy I've been missing you lately
      Am                 G             F   C
Cause you make it real for me
Am               G             F   C
You make it real for me


 Thanks for using my tab hope it helped! This is my first tab I have ever provided so 
comments on anything I need to improve on would be great!
Thanks everyone,
   Keith
comments
print report bad tab
I want to post or [tab]
guest
You may want to rate the tab now too:
select rating
Please do not post tabs as comments. Select "correction" instead!