Oops, an error
Loading. Please wait.

Blossom Bass Tab

2,103 views 1 this week
no commentswrite comment
1 2 3 4 5
3 more votes to show rating
add to favorites
launch autoscroll
font size
0
reset
guitar tuner
Autoscroll
slow
fast
+/-
esc
set tempo
stop
Help us to improve Ultimate-Guitar.com Take our survey!
×
Author
Difficulty
intermediate
"Blossom" by James Taylor
Album: Sweet Baby James (1970)
Bassist: Leeland Sklar


Verse
G -------------------------------|
D -5-5-3-3-2-2-------------------|
A -------------5-5-3-3-2-2-----5-|
E -------------------------5-5---|  3x

Pre-Chorus
G ---------|
D -3-2-----|
A -----5---|
E -------3-|

Chorus
G ------------------9------------------|
D ----2---------------9----------7-----|
A 3-5---5-3-2-3-2-7-----7-0-4-7----7-5-|
E -------------------------------------|
Suggest correction
Give kudos to tab author, rate the tab!
1 2 3 4 5
comments
print report bad tab
guest
You may want to rate the tab now too:
select rating
Wanna post a correction for this tab? Suggest correction