Oops, an error
Loading. Please wait.

Carolina In My Mind Tab

version 2
version 2

Whole song

Interactive

43,731 views 57 this week
3 commentsread comments
1 2 3 4 5
x 12
add to favorites
launch autoscroll
font size
0
reset
how to read this tab
guitar tuner
Autoscroll
slow
fast
+/-
esc
set tempo
stop
Help us to improve Ultimate-Guitar.com Take our survey!
×
Author
Capo
2nd fret
Carolina In My Mind - Music by James Taylor - Tabbed by Andrew DeSantis

Capo: 2nd Fret

 [Intro]
e|---|-0h2-------------3----------|-3--------------3-------------|
B|---|---------3----------3-----3-|-------3--------------3-----3-|
G|-2-|------2-------0--------0----|----0--------0-----0----------|
D|---|-0---------0----------------|-------------------------2----|
A|---|----------------------------|----------------0-------------|
E|---|-----------------3-----2----|-0--------0-------------------|

 [Chorus]
e|-------2----------------------------|----------------------0---------------|
B|-------3-----3--------3-----------3-|----------------------------0h2-----0-|
G|----2-----2--------0-----------0----|-------0-----0-----2-----2------------|
D|-0----------------------------------|----2-----2-----0----------------2----|
A|------------------------------------|--------------------------------------|
E|----------------3--------2--0-------|-0------------------------------------|
    
e|-------------------------0---------|---------------------------------|
B|----3--3--3--------------0h2-------|----3--3--3-----3--------2-------|
G|----0--0--0--------------2-------0-|----0--0--0-----0--------0-----0-|
D|-------------------2--2-------2----|-------------2--------2-----2----|
A|-------------2--0------------------|-------------------0-------------|
E|-3---------------------------------|-0-------------------------------|

e|-------2--2--2--2--2-------|------------------------------|
B|-------3--3--3--3--3--3----|-0--------------------2-------|
G|----2--2--2--2--2--2--2--2-|-0-----2-----1--1--1--2-----0-|
D|-0-------------------------|----0-----0--0--0--0-----2----|
A|-------4-----2--------0----|----------------------0-------|
E|---------------------------|-3-----2-----0----------------|
                                                                                                   
e|----2--2-----2--2----------------|-------0h2p0--------0h2---------------|
B|----3--3-----3--3--------------2-|-------3---------3---------------3--3-|
G|----2--2-----4--4-----0-----2----|----2---------2----------2-------2--2-|
D|-0--------------------2----------|-0-----------------------0------------|
A|----------2--------------0-------|--------------------------------------|
E|-------------------0-------------|----------------------------0h2-------|

 [Verse 1]
e|-------2--------0-|---------------------|---------------------------|
B|-------3--------1-|-------0--2----------|-------3--------------0----|
G|----2--------0----|-------0-----------0-|-------4-----4-----------0-|
D|-0----------------|----0-----2-----2----|----4-----4--------0-------|
A|----------3-------|----------0--1-------|-2-------------------------|
E|------------------|-3-------------------|----------------3----------|

e|----------0--0--------0--0--------0--0--------0---|------------------------|
B|----------2--0--------2--0--------2--2--0-----0h2-|-------3-----------3----|
G|----2--------------------------------------2------|----0-----0-----2-------|
D|-------2-----------2-----------2------------------|------------------------|
A|-0--------------0-----------0---------------------|----------------------0-|
E|--------------------------------------------------|-3-----------2----------|

e|-2----------|----2--2-----2--2-------------------|----------0h2p0--------0h2------------|
B|-3--0--3--2-|----3--3-----3--3-----3--3-----2--2-|----3-----3---------3--3-------3------|
G|-4--1--0--0-|----2--------4--------1--1-----0--0-|-------2---------2-----2----2---------|
D|----0--2--2-|-0--------------------0--0-----2----|-0------------------------------------|
A|-2--------0-|----------2-----------------0-------|----------------------------------0h2-|
E|----0--0----|-------------------0----------------|--------------------------------------|

e|-------2-------------------|---------------------------|---------------------------|
B|-------------3-------------|----------0--2-----2-------|-------3-----3--------0----|
G|----2-----2--------0-------|-------0--------0--------0-|----4-----4--------0-----0-|
D|-0-------------------------|----0-----------------2----|---------------------------|
A|----------------3----------|-------------0-----1-------|-2-------------------------|
E|----------------------0--2-|-3-------------------------|----------------3----------|

e|----------0--0--------------0-------|---------------|-2----------------------------|
B|-------2-----0--------------------2-|-------3-----3-|-3--------0--3--------2-------|
G|----2-----------2--------2-----2----|----0-----0--2-|----2--1-----------0-----0----|
D|----------------------2-------------|---------------|----------------2-----------2-|
A|-0-----------------0----------------|---------------|-2--------------------0-------|
E|------------------------------------|-3-----------2-|-------0-----0----------------|

 [Chorus]
e|-------2----------------------------|------------------------0--0---------|
B|-------3-----3--------3-----------3-|----------0h2-----------0--0h2-----2-|
G|----2-----2--------0-----------0----|-------2----------2-----2-------2----|
D|-0----------------------------------|----2----------2-----2---------------|
A|------------------------------------|-0-------------------0---------------|
E|----------------3--------2--0-------|-------------------------------------|
    
e|-------------------------0---------|---------------------------------|
B|----3--3--3--------------0h2-------|----3--3--3-----3--------2-------|
G|----0--0--0--------------2-------0-|----0--0--0-----0--------0-----0-|
D|-------------------2--2-------2----|-------------2--------2-----2----|
A|-------------2--0------------------|-------------------0-------------|
E|-3---------------------------------|-0-------------------------------|

e|-------2--2--2--2--2-------|------------------------------|
B|-------3--3--3--3--3--3----|-0--------------------2-------|
G|----2--2--2--2--2--2--2--2-|-0-----2-----1--1--1--2-----0-|
D|-0-------------------------|----0-----0--0--0--0-----2----|
A|-------4-----2--------0----|----------------------0-------|
E|---------------------------|-3-----2-----0----------------|
                                                                                                   
e|----2--2-----2--2----------------|-------0h2p0--------0h2-|
B|----3--3-----3--3--------------2-|-------3---------3------|
G|----2--2-----4--4-----0-----2----|----2---------2---------|
D|-0--------------------2----------|-0----------------------|
A|----------2--------------0-------|------------------------|
E|-------------------0-------------|------------------------|

 [Verse 2]
e|-------2--------0-|---------------------|---------------------------|
B|-------3--------1-|-------0--2----------|-------3--------------0----|
G|----2--------0----|-------0-----------0-|-------4-----4-----------0-|
D|-0----------------|----0-----2-----2----|----4-----4--------0-------|
A|----------3-------|----------0--1-------|-2-------------------------|
E|------------------|-3-------------------|----------------3----------|

e|----------0--0--------0--0--------0--0--------0---|------------------------|
B|----------2--0--------2--0--------2--2--0-----0h2-|-------3-----------3----|
G|----2--------------------------------------2------|----0-----0-----2-------|
D|-------2-----------2-----------2------------------|------------------------|
A|-0--------------0-----------0---------------------|----------------------0-|
E|--------------------------------------------------|-3-----------2----------|

e|-2----------|----2--2-----2--2-------------------|----------0h2--------3--2p0----0h2----|
B|-3--0--3--2-|----3--3-----3--3-----3--3-----2--2-|-------3----------3---------3-------2-|
G|-4--1--0--0-|----2--------4--------1--1-----0--0-|----2----------2----------------------|
D|----0--2--2-|-0--------------------0--0-----2----|-0------------------------------------|
A|-2--------0-|----------2-----------------0-------|--------------------------------------|
E|----0--0----|-------------------0----------------|--------------------------------------|

 [Interlude]
e|---------------------|----------2---------------|------------------------|
B|-------0--------2----|----------4h3-------------|-------2-----------0----|
G|----0-----0--2-----2-|----4-----4----4-----4--4-|-------2--2--------0----|
D|-------------2-------|-------4--4-------4-------|-------4--4-----2--2----|
A|-------------0-------|-2-------------2----------|----4-----4-------------|
E|-3-------------------|--------------------------|-2-----------0--------2-|

e|----------------------------0--0----|------------------|-------0h2-------|
B|----------0--0--------2--2--2--2----|------------------|----3-------3----|
G|----0--0--0--0--------0--0--0-------|----0-----0-----0-|-----------------|
D|----0--0--0-----------2-------------|----2-----0-----2-|-0-------------0-|
A|----------------2--0--------------2-|-3----------------|-----------------|
E|-3----------------------------------|-------3-----0----|-----------------|

e|---------------------------|----2-----2--2-----0--0--------0-|-------0h2p0--------0h2----------|
B|-------3--3--3--------3----|----3-----3--3-----0--0-----2--2-|-------3---------3----------3--3-|
G|----0-----0--------0-----0-|----2--------------0--0-----0----|----2---------2----------2-----2-|
D|---------------------------|-0-------------------------------|-0------------------0------------|
A|-3--------------2----------|-------2-----------------0-------|---------------------------------|
E|---------------------------|----------------0----------------|---------------------------------|

 [Chorus]
e|---------------------------|-----------------------------|---------------------------------|
B|----3--3-----3--3-----3--3-|----0--0--------2--2--0h2----|----3-----3--3-----2--2-----2--2-|
G|----2--2-----0--0-----0--0-|----0--0--------2--2-------2-|----0-----0--0-----2--2-----2--2-|
D|-0-------------------------|-------------0--2------------|----0-----0--------2--2-----2--2-|
A|---------------------------|-----------------------------|-------2--------0--------2--4----|
E|----------3--------0-------|-3--------3------------------|-0-------------------------------|

e|------------------------|---------------------|
B|------------------------|-3--3--------------2-|
G|----2-----2-----2-----2-|-0--2-----1--1-----0-|
D|-0--0-----0-----0-----0-|----------0--0-------|
A|-------4-----2-----0----|----------------0----|
E|------------------------|-3--2--0-------------|

e|----2--2-----2--2----------------|----0--0--0--0--0--0-|
B|----3--3-----3--3-----3-----3--3-|-3--3--3--3--3--3--3-|
G|----2--2-----2--2-----0-----2----|-0--0--0--0--0--0--0-|
D|-0-------------------------------|-2--2-----2--2--2----|
A|---------------------------------|-2--------0----------|
E|----------2--------3-----2-------|-0-------------------|

e|----2--2-----2--2-----------0--0-|-----------------------------------|
B|----3--3-----3--3-----3-----2--2-|---3--3-----3--3-----0--0-----2--2-|
G|----2--2-----2--2-----4-----2----|---0--0-----2--2-----1--1-----2--2-|
D|-0--------------------4----------|---0--------0--0-----2--------2--2-|
A|----------4--------2-----0-------|---------------------------0-------|
E|---------------------------------|-3-------2--------0----------------|

 [Outro]
e|----2--2-----2--2-----------0--0-|-----------------------------------|
B|----3--3-----3--3-----3-----2--2-|---3--3-----3--3-----0--0-----2--2-|
G|----2--2-----2--2-----4-----2----|---0--0-----2--2-----1--1-----2--2-|
D|-0--------------------4----------|---0--------0--0-----2--------2--2-|
A|----------4--------2-----0-------|---------------------------0-------|
E|---------------------------------|-3-------2--------0----------------|

e|----2--2-----2--2-----------0--0-|-----------------------------------|
B|----3--3-----3--3-----3-----2--2-|---3--3-----3--3-----0--0-----2--2-|
G|----2--2-----2--2-----4-----2----|---0--0-----2--2-----1--1-----2--2-|
D|-0--------------------4----------|---0--------0--0-----2--------2--2-|
A|----------4--------2-----0-------|---------------------------0-------|
E|---------------------------------|-3-------2--------0----------------|

e|----2--2-----2--2-----------0--0-|-----------------------------------|
B|----3--3-----3--3-----3-----2--2-|---3--3-----3--3-----0--0-----2--2-|
G|----2--2-----2--2-----4-----2----|---0--0-----2--2-----1--1-----2--2-|
D|-0--------------------4----------|---0--------0--0-----2--------2--2-|
A|----------4--------2-----0-------|---------------------------0-------|
E|---------------------------------|-3-------2--------0----------------|

e|----2--2-----2--2-----------0--0-|-----------------------------------|
B|----3--3-----3--3-----3-----2--2-|---3--3-----3--3-----0--0-----2--2-|
G|----2--2-----2--2-----4-----2----|---0--0-----2--2-----1--1-----2--2-|
D|-0--------------------4----------|---0--------0--0-----2--------2--2-|
A|----------4--------2-----0-------|---------------------------0-------|
E|---------------------------------|-3-------2--------0----------------|

e|----2--2-----2--2-----------0--0-|-----------------------------------|
B|----3--3-----3--3-----3-----2--2-|---3--3-----3--3-----0--0-----2--2-|
G|----2--2-----2--2-----4-----2----|---0--0-----2--2-----1--1-----2--2-|
D|-0--------------------4----------|---0--------0--0-----2--------2--2-|
A|----------4--------2-----0-------|---------------------------0-------|
E|---------------------------------|-3-------2--------0----------------|

atdesantis11@gmail.com



************************************

| h  Hammer-on
| p  Pull-off

************************************
Suggest correction
comments
print report bad tab
3 comments total.
0 reply
jGYURIK 10 Feb 17, 2013 02:58 PM

Finally, someone competent enough to know that this song uses capo 2nd. Thank you, well done!

0 reply
ryan.c.nicholls 10 Jun 03, 2016 11:08 AM

jGYURIK: Well...in the defense of the others that have tabbed this song, if you try to listen any of his live performances, he plays in different keys. One version, he played it in "F," and then in another he played in "D." Then, of course, in "E" like in this tab.

0 reply
bobbyrichter420 10 Aug 01, 2016 05:17 PM

If you watch this video, he places the capo on third fret. https://www.youtube.com/watch?v=J8-5czYJvPM&list=PL4C7B31793C012820&index=2

guest
You may want to rate the tab now too:
select rating
Wanna post a correction for this tab? Suggest correction