Oops, an error
Loading. Please wait.
We have an official Fire And Rain tab made by UG professional guitarists. Check out the tab »
×
1,216 views 15 this week
5 commentsread comments
1 2 3 4 5
x 3
add to favorites
×
Save as Personal and add changes to this tab that will be seen only by you. Learn more ›
×
You can save this tab as Personal to edit and correct it or add notes. All changes will be seen only by you. Learn more »
launch autoscroll
font size
0
reset
guitar tuner
edit
Autoscroll
slow
fast
+/-
esc
set tempo
stop
Author
---------------------------------------------------------------------
                      Fire And Rain - James Taylor
---------------------------------------------------------------------
Tabbed by: RagnaarMN
Tuning: Standard
Key of C Major

  Intro:
G|----------------|----------------|----------------|----------------|
D|----------------|----------------|----------------|----------------|
A|3-------3-------|3-------3-------|3-------3-------|1-------1-----1-|
E|----------------|----------------|----------------|----------------|

  Chorus:
G|----------------|----------------|----------------|----------------|
D|----------------|----------------|----------------|----------------|
A|3---------------|--------3-------|3---------------|1-------------1-|
E|--------3-------|1---------------|--------3-------|----------------|

G|----------------|----------------|----------------|----------------|
D|----------------|----------------|----------------|----------------|
A|3---------------|--------3-------|3---------------|1---------------|
E|--------3-------|1---------------|--------3-------|----------------|


G|------------0---|----------------|------------0---|----------------|
D|3---2---0-------|----------------|3---2---0-------|----------------|
A|----------------|3-------3-------|----------------|3-------3-------|
E|----------------|----------------|----------------|----------------|

G|------------0---|----------------|----------------|----------------|
D|3---2---0-------|----------------|----------------|----------------|
A|----------------|3-------3-------|1---0-----------|3-------------3-|
E|----------------|----------------|--------3-------|----------------|

  Last time skip next bar
G|----------------|
D|----------------|
A|3-----------1---|
E|--------3-------|

  Outro:
G|----------------|
D|----------------|
A|3-----3-------3-|
E|----------------|

Credit to Constantine Isslamow.
======================================================================

            
            
Suggest correction
Creating personal tab
Creating personal tab
You can edit any tab online and save it as your Personal.

You can edit, replace or remove any tab part or add personal notes – all changes will be seen only by you.

Personal tabs can be accessed anytime from any device, even offline.
Learn more »
Give kudos to tab author, rate the tab!
1 2 3 4 5
comments
print report bad tab
5 comments total. Showing first comments.
0 reply
bouscal 10 Feb 04, 2016 08:23 AM

---------------------------------------------------------------------
Fire And Rain - James Taylor
---------------------------------------------------------------------
Tabbed by: Bouscal
Tuning: Standard
Key of C Major

Intro: no bass
G|----------------|----------------|----------------|----------------|
D|----------------|----------------|----------------|----------------|
A|----------------|----------------|----------------|----------------|
E|----------------|----------------|----------------|----------------|

verse (play twice)
G|----------------|----------------|----------------|3---------------|
D|--------5-------|3---------------|--------5-------|----------------|
A|3---------------|--------3-------|3---------------|----------------|
E|----------------|----------------|----------------|----------------|

chorus
G|----------------|----------------|----------------|----------------|
D|3---2---0-------|----------------|3---2---0-------|----------------|
A|----------------|3---------------|----------------|3---------------|
E|------------3---|----------------|------------3---|----------------|

G|------------0---|----------------|3---2---0-------|----------------|
D|3---2---0-------|----------------|----------------|----------------|
A|----------------|3---------------|----------------|3---------------|
E|----------------|----------------|----------------|----------------|

0 reply
RagnaarMN 2,951 Feb 04, 2016 03:19 PM

In the chorus, listen for the step down in bars 7 and 8. Bar 9 seems to be in the music, kind of a fill.

0 reply
RagnaarMN 2,951 Feb 04, 2016 06:26 PM, edited on November 27 2016, 12:53 am

I am confused here. I don't want to 'ignore' the comment by bouscal and I have corrected the tab, respond to them, yet the interface keeps telling me I need to respond.

guest
You may want to rate the tab now too:
select rating
Wanna post a correction for this tab? Suggest correction