Oops, an error
Loading. Please wait.

Fire And Rain Tab

version 1
version 1

Whole song

Interactive

203,740 views 69 this week
4 commentsread comments
1 2 3 4 5
x 12
add to favorites
launch autoscroll
font size
0
reset
how to read this tab
guitar tuner
×
Best way to learn
"Fire And Rain"
Autoscroll
slow
fast
+/-
esc
set tempo
stop
Author
Capo
Standard (EADGBE) but with a capo on the third fret.

[Intro]
E|--------5----------3---------2-0--0--0-0---------0---0------0-------|
B|----------5----------3-------3-3--0--0-0---------0---0------0-------|
G|--4/6-------6---6\4----4-----2-2--2--2-2---------2---2------2-------|
D|----------------------------------2--2-2---2-----2-----2--2---------|
A|-------------------------------------------2--2---------------------|
E|----------------------------------------------3---------------------|

      Just yesterday mornin they let me know you were gone
E|-0----------------------3------------------2---2---------0--0-----0-|
B|-0----------------------3------------------3---3---------0--0-----0-|
G|-2----------------------0------------------2---2---------2--2-----2-|
D|-2----------------------0--------------------------------2----2-2---|
A|------------------------2-------------------------------------------|
E|------------------------3-------------------------------------------|

   Susan the plans they made put an end to you.....
E|-0--------------------------------0--------0h2-2--------------------|
B|-0--------------------------------3-------------3-------------------|
G|-2---------1------1---------------0--0---0--------------------------|
D|-2---------2------2-------------------------------------------------|
A|-----------2------2-------------------------------------------------|
E|--------------------------------------------------------------------|

   Whoa I've seen fire and Ive seen rain
E|-2----2---------------------------0--0-----0-------------------|
B|-3----3---------------------------0--0-----0-------------------|
G|-2----2---------1----1------------2--2-----2-------------------|
D|----------------2----2------------2----2-2---------------------|  
A|----------------2----2-----------------------------------------|   
E|---------------------------------------------------------------|  

  I've seen sunny days that I thought would never end          
  I've seen lonely times when I could not find a friend
  
   But I always thought that I'd see you again
E|-------------------------------------------0---0000000---------|
B|-------------------------------------------3---0000000---------|
G|-------0------0----------------1----1------2---2222222---------|
D|-------0------0----------------2----2------2---2222222---------|
A|-------2------2----------------2----2--------------------------|
E|-------3------3------------------------------------------------|

(Basicly the chords are A G D A for the chorus and D E A for the verse.
But this is the way I play it.
Just listen to the song to figure out how to strum it. This is the basic way to play it.)


************************************

| /  Slide up
| \  Slide down
| h  Hammer-on

************************************
Suggest correction
comments
print report bad tab
4 comments total. Showing first comments.
0 reply
Seany 415 Jun 09, 2004 08:00 PM

close... but no cigar

the chorus chords are D F#m Bm7 D and A

0 reply
dsmtlig 176 Nov 24, 2006 03:19 PM

you and seany are both wrong

0 reply
00_matt 10 Dec 27, 2006 06:28 AM

it just isn't right. theres a lot missing

guest
You may want to rate the tab now too:
select rating
Wanna post a correction for this tab? Suggest correction