Oops, an error
Loading. Please wait.

Something In The Way She Moves tab

version 4
version 4

Whole song

Interactive

52 views 3 this week
no commentswrite comment
1 2 3 4 5
3 more votes to show rating
add to favorites
×
Save as Personal and add changes to this tab that will be seen only by you. Learn more ›
×
You can save this tab as Personal to edit and correct it or add notes. All changes will be seen only by you. Learn more »
launch autoscroll
font size
0
reset
how to read this tab
guitar tuner
edit
Autoscroll
slow
fast
+/-
esc
set tempo
stop
SOMETHING IN THE WAY SHE MOVES

As recorded by James Taylor
(From the 1968 Album JAMES TAYLOR)

Words and Music by James Taylor

Transcribed by Slowhand


Gtr I (E A D G B E) - 'James Taylor - Acoustic Guitar w/ capo 3rd fret'



 Intro
  Q=75
  C         Gm9               C           Gm9
 4/4
  Gtr I (Ac. Gtr. w/ capo 3rd fret)
  E E E S S S S S S S S S S   E S S E S S S S S S S S S S
|---------------------------|-----------------------------|
|-----2-------3-----------3-|-------2-------3-----------3-|
|-----------------0---------|-------------------0---------|
|---2-----2s4---------4-----|---0h2-----2s4---------4-----|
|-0-----0-------------------|-0-------0-------------------|
|---------------0---0---0---|-----------------0---0---0---|


  C           Gm9
  E S S E S S S S S S S S S S
|-----------------------------|
|-------2-------3-----------3-|
|-------------------0---------|
|---0h2-----2s4---------4-----|
|-0-------0-------------------|
|-----------------0---0---0---|


                                1st & 2nd Verses
                              $
  C           Gm9                C       Gm9C
  E S S E S S S S S S S S S S    E E E E Q  E S S
|-----------------------------||----------------0--|
|-------2-------3-----------3-||-----2---3----2----|
|-------------------0---------||-------------------|
|---0h2-----2s4---------4-----||---2---2-4---------|
|-0-------0-------------------||-0----------0------|
|-----------------0---0---0---||---------0---------|


  Gm            F     Bb      C
   E  S S +E  E E S S E S S   S S S S S S S S S S S S S S S S
|-(0)-0-0-(0)-0-------------|-------0---------------0---------|
|-----0-0-(0)-0---3-3---3-3-|-----------0-----0h2-------2-----|
|-----------------2-2---0-0-|-----2---------2---------------2-|
|--2------------0-0-0-------|---2-----------------------------|
|---------------------------|-0-------0---0-------0---0---0---|
|---------------------3-----|---------------------------------|


  Gm        Bb        Eb      F
  E S S S S S S E S S E S S   E S S S S S S S S S S S S S S
|---------------------------|-----0h2p0-----0h2-----0-------|
|---0-0-0-0---0---0-0---1-1-|-----3-------3---------2p0---0-|
|---0-0-0-0---0---0-0---0-0-|---2-------2---------2-----2---|
|---2-2-2-2---0---0-0---2-2-|-0-----------------0-----------|
|---------------------3-----|-------------------------------|
|-0---------2---3-----------|-------------------------------|


  C       Gm9   C       Gm          F     Bb
  E E E e E S S E S S    E  E E S S E S S E S S
|-------------------0-|-(0)-0---0-0-------------|
|---------3-----------|-----0---0-0---3-3---3-3-|
|---2---2---------2---|---------------2-2---0-0-|
|---2---2-4---4-------|--2----2-----0-0-0---0-0-|
|-0---0---------0-----|-------------------------|
|---------0-0---------|-------------------3-----|


  C                                 Gm          Bb  Eb
  S S S S S S S S S S S S S S S S   E E S S S S E E E S S
|-------0---0-----------0---------|-----------------------|
|-----------0-----0h2-------2-----|-----------------------|
|-----2---------2---------------2-|-------0---0---0---0-0-|
|---2-----------------------------|---2-------0---0---2-2-|
|-0-------0---0-------0---0---0---|-----------------3-----|
|---------------------------------|-0---0---2---3---------|


                                Chorus
  C                              C         Gm    F
  S S S S S S S S S S S S E E    E S S E E E S S E S S
|-------0---------------0---0-||-----------------------|
|-----------0-----0-2---2---2-||---2-2---2---0-0---3-3-|
|---2-----------2-------------||---2-2---2---0-0---2-2-|
|-----2-------2-------2-------||---2-2---2---2-2-0-----|
|-0-------0-------0-------0---||-0-----0---------------|
|-----------------------------||-----------0-----------|


  C                             Am7           Dm7
  E S S S S S S S S S S S S E   E S S S S S S E S S S S S S
|-----0---0-----------0-------|-----2-------------2---------|
|---------0-----0h2-------2---|---------2-2-3---3-----3---3-|
|-------------2---------------|---------2-2-----2-----2---2-|
|---2-------2-------2-------2-|---4-----4-4-----4-------4---|
|-0-----0-------0-------0-----|---------------2-----2-------|
|-----------------------------|-2-----2---------------------|


  G11           Dm7   G11     C             Gm    F
  E S S S S S S E S S E S S   E S S S S S S E S S E S S
|---0-0-0-0-0-2-------------|---------------------------|
|---3-3-3-3-3-3---3-3---3-3-|---2-2-2-2-2-2---0-0---3-3-|
|---2-2-2-2-2-----2-2---2-2-|---2-2-2-2-2-2---0-0---2-2-|
|---4-4-4-4-4-----4-4---4-4-|---2-2-2-2-2-2---2-2-0-----|
|---------------2-----------|-0-------------------------|
|-0-------------------0-----|---------------0-----------|


                                                       To Coda
  C                               Am7           Dm7
  S S S S S S S S S S S S S S E   E S S S S S S E S S S S S S
|-----------0-----------0-------|---2-2-2-2-2------------------|
|-----------0-----0h2-------2---|---2-2-2-2-2-3---3-3-3-3-3-3--|
|---2-2-2-------2---------------|---2-2-2-2-2-----2-2-2-2-2-2--|
|---2-2-2-----2-------2-------2-|-----------------4-4-4-4-4-4--|
|-0-------0-------0-------0-----|---------------2--------------|
|-------------------------------|-2----------------------------|


  G11        Dm7   G11     C             Bb      F
  E. S E S S E S S E S S   E S S S S S S S S S S S S S S
|----2-2-2-2-------------|-----0-------------3-------2---|
|----3-3-3-3---3-3---3-3-|-------2p0---0-------3-------3-|
|----2-2-2-2---2-2---2-2-|---2-------2-----0-------2-----|
|----4-4-4-4---4-4---4-4-|-----------------------0-------|
|------------2-----------|-0-----------------------------|
|-0----------------0-----|---------------3---------------|


                                    Bridge
  C                                  F         Ebadd9
  S S S s S S S S S S S S S S S S    E E E S S E S S S S S S
|-------0---0-----------0---------||-----2-------0-0-0-0-0---|
|-----------0-----0h2-------2-----||-----3-3-3---3-3-3-3-3-3-|
|---2-----------2---------------2-||---2---2-2---0-0-0-0-0-0-|
|-----2-------2-------2-------2---||-0-----------------------|
|-0---------------0-------0-------||-----------3-------------|
|---------------------------------||-------------------------|


  Bb    Ebadd9F               Bb    Ebadd9F
  E S S E S S E S S S S S S   E S S E S S E S S S S S S
|---------0-0---3p2-2-2-----|---------0-0---0h2-2-2-2-2-|
|---3-3---3-3---3---3-3-3-3-|---3-3---3-3---3---3-3-3-3-|
|---0-0---0-0---2---2-2-2-2-|---0-0---0-0---2---2-2-2-2-|
|-------------0-------------|-------------0-------------|
|-2-----3-------------------|-2-----3-------------------|
|---------------------------|---------------------------|


  Ebadd9        Bb
  E S S S S S S E S S E S S
|---0-0-0-0-0-0-------------|
|---3-3-3-3-3-3---3-3-3-3-3-|
|---0-0-0-0-0-0---0-0-0-0-0-|
|---------------------------|
|-3-------------2-----------|
|---------------------------|


  Gm         C               F         Ebadd9
  E. S S S E S S S S S S E   E E E S S E S S S S S S
|----0-----------0---------|---2-2-2-0---0-0-0-0-0-0--|
|----0-0-0-0-------0---2---|---3-3-3-3---3-3-3-3-3-3--|
|----0-0-0-0---2-----------|---2-2-2-2---0-0-0-0-0-0--|
|------2-2-2-------------2-|-0------------------------|
|------------0-------0-----|-----------3--------------|
|-0------------------------|--------------------------|


  Bb    Ebadd9F               Bb    Ebadd9F
  E S S E S S E S S S S S S   E S S E S S E S S S S S S
|---------0-0---2-2-2-2-2-2-|---------0-0---2-2-2-2-2-2-|
|---3-3---3-3---3-3-3-3-3-3-|---3-3---3-3---3-3-3-3-3-3-|
|---0-0---0-0---2-2-2-2-2-2-|---0-0---0-0---2-2-2-2-2-2-|
|-------------0-------------|-------------0-------------|
|-2-----3-------------------|-2-----3-------------------|
|---------------------------|---------------------------|


  Bb    Ebadd9F     C
  E S S E S S E S S E S S
|---------0-0---3-2-------|
|---3-3---3-3---3-3---2-2-|
|---0-0---0-0---2-2---2-2-|
|-------------0-------2-2-|
|-2-----3-----------0-----|
|-------------------------|


                                         D.S. al Coda
  Dm7           G11             Dm7           G11
  E S S S S S S E S S S S S S   E S S S S S S E. S Q
|---2-2-2-2-2-2---2-2-2-2-2-2-|---2-2-2-2-2-2----2-2---||
|---3-3-3-3-3-3---3-3-3-3-3-3-|---3-3-3-3-3-3----3-3---||
|---2-2-2-2-2-2---2-2-2-2-2-2-|---2-2-2-2-2-2----2-2---||
|-----------------4-4-4-4-4-4-|------------------4-4---||
|-2---------------------------|-2----------------------||
|---------------0-------------|---------------0--------||


  &
  G11           Dm7             G11           Dm7   G11
  E S S S S S S E S S S S S S   E S S S S S S E S S E S S
|---2-2-2-2-2-2---2-2-2-2-2-2-|---2-2-2-2-2-2---2-2---2-2-||
|---3-3-3-3-3-3---3-3-3-3-3-3-|---3-3-3-3-3-3---3-3---3-3-||
|---2-2-2-2-2-2---2-2-2-2-2-2-|---2-2-2-2-2-2---2-2---2-2-||
|---4-4-4-4-4-4---4-4-4-4-4-4-|---4-4-4-4-4-4---4-4---4-4-||
|---------------2-------------|---------------2-----------||
|-0---------------------------|-0-------------------0-----||


 Outro
  C             Bb      F         C
  E S S S S S S S S S S S S S S   S S S S S S S S S S S S S E.
|-----0-------------3-------2---|---------0-------0-0-----------*|
|-------2p0---0-------3-------3-|-----------2p0---3-2p0---0h2---*|
|---2-------2-----0-------2-----|---2-----------2-------2-------*|
|-----------------------0-------|-----2-2-----------------------*|
|-0-----------------------------|-0-----------------------0-----*|
|---------------3---------------|-------------------------------*|


Duration Legend
---------------
W - whole; H - half; Q - quarter; E - 8th; S - 16th; T - 32nd; X - 64th; a - acciaccatura
+ - note tied to previous; . - note dotted; .. - note double dotted
Uncapitalized letters represent notes that are staccato (1/2 duration)
Irregular groupings are notated above the duration line
Duration letters will always appear directly above the note/fret number it represents the
duration for.  Duration letters with no fret number below them represent rests.  Multi-
bar rests are notated in the form Wxn, where n is the number of bars to rest for.  Low
melody durations appear below the staff

Tablature Legend
----------------
 h   - hammer-on
 p   - pull-off
 b   - bend
 pb  - pre-bend
 r   - bend release (if no number after the r, then release immediately)
 /\  - slide into or out of (from/to "nowhere")
 s   - legato slide
 S   - shift slide
  - natural harmonic
[n]  - artificial harmonic
n(n) - tapped harmonic
 ~   - vibrato
 tr  - trill
 T   - tap
 TP  - trem. picking
 PM  - palm muting
\n/  - tremolo bar dip; n = amount to dip
 \n  - tremolo bar down
 n/  - tremolo bar up
/n\  - tremolo bar inverted dip
 =   - hold bend; also acts as connecting device for hammers/pulls
 <>  - volume swell (louder/softer)
 x   - on rhythm slash represents muted slash
 o   - on rhythm slash represents single note slash

Misc Legend
-----------
 |  - bar
||  - double bar
||o - repeat start
o|| - repeat end
*|  - double bar (ending)
 :  - bar (freetime)
 $  - Segno
 &  - Coda
Tempo markers -  = BPM(8/16=s8/s16), where s8 = swing 8ths, s16 = swing 16ths



Something in the way she moves, or looks my way, or calls my name
That seems to leave this troubled world behind
And if I'm feeling down and blue or troubled by some foolish game
She always seems to make me change my mind..

And I feel fine anytime she's around me now, she's around me now almost all the time
And if I'm well you can tell she's been with me now
She's been with me now quite a long, long time and I feel fine

Every now and then the things I lean on lose their meaning
And I find myself careening in places where I should not let me go
She has the power to go where no one else can find me and to silently remind me
Of the happiness and the good times that I know, and then I just got to go then

It isn't what she's got to say but how she thinks and where she's been
To me, the words are nice, the way they sound
I like to hear them best that way, it doesn't much matter what they mean
She says them mostly just to calm me down

And I feel fine anytime she's around me now, she's around me now almost all the time
And if I'm well you can tell she's been with me now
She's been with me now quite a long, long time and I feel fine 

            
            
Suggest correction
Creating personal tab
Creating personal tab
You can edit any tab online and save it as your Personal.

You can edit, replace or remove any tab part or add personal notes – all changes will be seen only by you.

Personal tabs can be accessed anytime from any device, even offline.
Learn more »
Give kudos to tab author, rate the tab!
1 2 3 4 5
comments
print report bad tab
guest
You may want to rate the tab now too:
select rating
Wanna post a correction for this tab? Suggest correction