Oops, an error
Loading. Please wait.

Follow You Down To The Red Oak Tree tab

41,930 views 15 this week
2 commentsread comments
1 2 3 4 5
x 33
add to favorites
×
Save as Personal and add changes to this tab that will be seen only by you. Learn more ›
×
You can save this tab as Personal to edit and correct it or add notes. All changes will be seen only by you. Learn more »
launch autoscroll
font size
0
reset
how to read this tab
guitar tuner
edit
Autoscroll
slow
fast
+/-
esc
set tempo
stop
Author
Tuning: Standard

[Intro]
  Em
e|-------|
B|---0---|
G|----0--|
D|--2----| (x8)
A|-------|
E|-0-----|

[Verse]
   Em         C     Em                G         Am   Em
e|---------------------------------------------------------------------------|
B|---0----0----1----0----0----0----0----3----3----1----0----0----0----0------|
G|----0----0----0----0----0----0----0----0----0----2----0----0----0----0-----|
D|--2----2----2----2----2----2----2----0----0----2----2----2----2----2-------|
A|-----------3----------------------------------0----------------------------|
E|-0----0---------0----0----0----0----3----3---------0----0----0----0--------|

   Am        C    Em                  Am        Em
e|---------------------------------------------------------------------|
B|---1----1----1----0----0----0----0----1----3----0----0----0----0-----|
G|----2----2----0----0----0----0----0----2----0----0----0----0----0----|
D|--2----2----2----2----2----2----2----2----0----2----2----2----2------| (x2)
A|-0----0----3------------------------0----0---------------------------|
E|----------------0----0----0----0--------------0----0----0----0-------|

   Bm        C    G                   Bm        C    G
e|---------------------------------------------------------------------------|
B|---3----3----1----3----3----3----3----3----3----1----3----3----3----3------|
G|----4----4----0----0----0----0----0----4----4----0----0----0----0----0-----|
D|--4----4----2----0----0----0----0----4----4----2----0----0----0----0-------|
A|-2----2----3------------------------2----2----3----------------------------|
E|----------------3----3----3----3-------------------3----3----3----3--------|

   Am        C    Em                  C          D
e|-------------------------------------------------2----2----2----2----------|
B|---1----1----1----0----0----0----0----1----1------3----3----3----3---------|
G|----2----2----0----0----0----0----0----0----0---2----2----2----2-----------|
D|--2----2----2----2----2----2----2----2----2----0----0----0----0------------|
A|-0----0----3------------------------3----3---------------------------------|
E|----------------0----0----0----0-------------------------------------------|
   Em         C     Em                G         Am   Em
e|---------------------------------------------------------------------------|
B|---0----0----1----0----0----0----0----3----3----1----0----0----0----0------|
G|----0----0----0----0----0----0----0----0----0----2----0----0----0----0-----|
D|--2----2----2----2----2----2----2----0----0----2----2----2----2----2-------|
A|-----------3----------------------------------0----------------------------|
E|-0----0---------0----0----0----0----3----3---------0----0----0----0--------|

   Am        C    Em                  Am        Em
e|---------------------------------------------------------------------|
B|---1----1----1----0----0----0----0----1----3----0----0----0----0-----|
G|----2----2----0----0----0----0----0----2----0----0----0----0----0----|
D|--2----2----2----2----2----2----2----2----0----2----2----2----2------| (x2)
A|-0----0----3------------------------0----0---------------------------|
E|----------------0----0----0----0--------------0----0----0----0-------|

            
            
Suggest correction
Creating personal tab
Creating personal tab
You can edit any tab online and save it as your Personal.

You can edit, replace or remove any tab part or add personal notes – all changes will be seen only by you.

Personal tabs can be accessed anytime from any device, even offline.
Learn more »
comments
print report bad tab
2 comments total.
0 reply
CaughtByNessie 183 Jun 01, 2011 08:24 AM

spot on. thanks.

+1 reply
the_resistance 10 Sep 18, 2011 09:16 AM

great tab.

i would just like to add that at the end of the song when he sings "follow me,follow me down" the progression is Am D Em. so...

Am D Em
e|--------------------------------|
B|---1----3----0----0----0----0---|
G|----2--2-2----0----0----0----0--|
D|--2---0-----2----2----2----2----| x4
A|-0------------------------------|
E|-----------0----0----0----0-----|

guest
You may want to rate the tab now too:
select rating
Wanna post a correction for this tab? Suggest correction