Oops, an error
Loading. Please wait.

We Dont Eat tab

10,411 views 45 this week
no commentswrite comment
1 2 3 4 5
x 8
add to favorites
×
Save as Personal and add changes to this tab that will be seen only by you. Learn more ›
×
You can save this tab as Personal to edit and correct it or add notes. All changes will be seen only by you. Learn more »
launch autoscroll
font size
0
reset
how to read this tab
guitar tuner
edit
Autoscroll
slow
fast
+/-
esc
set tempo
stop
Author
Difficulty
Cabo on first thread.
 
This is my first tab, so i hope you'll like it :)

This song is both easy and hard to learn
. The thing that makes it easy, is the chord has its own tab, which means, 
you just need to know the chords progression when you first learned to do the tab. 
So lets start with the verse. The chords here are following:
________________________________________________________________________
VERSE(repeats every verse)
________________________________________________________________________
  G
If this is redemption, why do I bother at all?
        Em                  C                  G
There's nothing to mention,    and nothing has changed
C                     D                     Em
   Still I'd rather be working at something,    than praying for the rain
     C               D               G
So I wander on, till someone else is saved
________________________________________________________________________
CHORUS
________________________________________________________________________
              Em             C               G
That we don't eat until your father's at the table
             Em              C                 G
And we don't drink until the devil's turned to dust
          Em           C                 G  D/F# Em
And never once has any man I've met been    able to love
   C                  D               G         G4 G
So if I were you, I'd   have a little trust
________________________________________________________________________
BRIDGE
________________________________________________________________________
Dm                         Em
    Am I an honest man and true?
                           Dm
Have I been good to you at all?
                                 Am
Oh I'm so tired of playing these games

We'd just be running down 
    G 
The same old lines, the same old stories of
F
   Breathless trains and, worn down glories
Am
   Houses burning, worlds that turn
G
   On their own
________________________________________________________________________
VERSE
 G
If this is redemption  Why do i bother at all
e|--------------------|e|--------------------|
B|---3---3---3---3----|B|---3---3---3---3----|
G|-0---0---0---0------|G|-0---0---0---0------|
D|--0---0---0---0-----|D|--0---0---0---0-----|
A|--------------------|A|--------------------|
E|3---3---3---3-------|E|3---3---3---2-------|

Em                  C                  G
There's nothing to mention,and nothing has changed
e|--------------------|e|--------------------|
B|---0---0---1---1----|B|---3---3---3---3----|
G|-0---0---0---0------|G|-0---0---0---0------|
D|--2---0---2---2-----|D|--0---0---0---0-----|
A|----2---3-----------|A|--------------------|
E|0-----------3-------|E|3---3---3---2-------|

C                     D                     Em
Still I'd rather be working at something,    than praying for the rain
e|-----------0--------|e|--------------------|
B|---1---1-3-----3----|B|---0---0---0---0----|
G|-0---0----2--2------|G|-0---0---0---0------|
D|--2---2-0-----0-----|D|--2---2---2---2-----|
A|3-------------------|A|----2-------2-------|
E|----3-------0-------|E|0-------0-----------|

  C               D               G
So I wander on, till someone else is saved
e|-----------0--------|e|--------------------|
B|---1---1-3-----3----|B|---3---3---3---3----|
G|-0---0----2--2------|G|-0---0---0---0------|
D|--2---2-0-----0-----|D|--0---0---0---0-----|
A|3-------------------|A|--------------------|
E|----3-------0-------|E|3---3---3---2-------|
________________________________________________________________________
CHORUS
             Em             C               G
That we don't eat until your father's at the table
e|--------------------|e|--------------------|
B|---0---0---1---1----|B|---3---3---3---3----|
G|-0---0---0---0------|G|-0---0---0---0------|
D|--2---2---2---2-----|D|--0---0---0---0-----|
A|----2---3-----------|A|--------------------|
E|0-----------3-------|E|3---3---3---2-------|

             Em              C                 G
And we don't drink until the devil's turned to dust
e|--------------------|e|--------------------|
B|---0---0---1---1----|B|---3---3---3---3----|
G|-0---0---0---0------|G|-0---0---0---0------|
D|--2---2---2---2-----|D|--0---0---0---0-----|
A|----2---3-----------|A|--------------------|
E|0-----------3-------|E|3---3---3---2-------|

   Em           C                 G  D/F# Em
And never once has any man I've met been    able to love
e|--------------------|e|--------------------|
B|---0---0---1---1----|B|---3---3---0---0----|
G|-0---0---0---0------|G|-0---0---0---0------|
D|--2---2---2---2-----|D|--0---0---2---2-----|
A|----2---3-----------|A|------------2-------|
E|0-----------3-------|E|3---2---0-----------|
________________________________________________________________________
BRIDGE

Dm                         Em
    Am I an honest man and true?
e|---1---1---1---1----|e|--------------------|
B|-2---2---2---2------|B|---0---0---0---0----|
G|--3---3---3---3-----|G|-0---0---0---0------|
D|0---0---0---0-------|D|--2---2---2---2-----|
A|--------------------|A|----2-------2-------|
E|--------------------|E|0-------0-----------|

                           Dm                                     Am
Have I been good to you at all? Oh, I'm so tired of playing these games - We'd just be running down

e|---1---1---1---1----|e|--------------------|
B|-2---2---2---2------|B|----1---1---1---1---|
G|--3---3---3---3-----|G|--2---2---2---2-----|
D|0---0---0---0-------|D|---2---2---2---2----|
A|--------------------|A|-0---0---0---0------|
E|--------------------|E|--------------------|

    G                                        F
The same old lines, the same old stories of, Breathless trains and, worn down Glories
e|--------------------|e|--------------------|
B|---3---3---3---3----|B|---1---1---1---1----|
G|-0---0---0---0------|G|-2---2---2---2------|
D|--0---0---0---0-----|D|--3---3---3---3-----|
A|--------------------|A|--------------------|
E|3---3---3---3-------|E|1---1---1---1-------|

Am                                   G
   Houses burning, worlds that turn, on their own
e|--------------------|e|--------------------|
B|---1---1---1---1----|B|---3---3---3---3----|
G|-2---2---2---2------|G|-0---0---0---0------|
D|--2---2---2---2-----|D|--0---0---0---0-----|
A|0---0---0---0-------|A|--------------------|
E|--------------------|E|3---3---3---2-------|


And that is pretty much it! Remember that each chord has it own tab which can make 
it easier to remember what to play... Good luck with it, and enjoy this wonderful 
piece of music!
Suggest correction
Creating personal tab
Creating personal tab
You can edit any tab online and save it as your Personal.

You can edit, replace or remove any tab part or add personal notes – all changes will be seen only by you.

Personal tabs can be accessed anytime from any device, even offline.
Learn more »
comments
print report bad tab
guest
You may want to rate the tab now too:
select rating
Wanna post a correction for this tab? Suggest correction