Oops, an error
Loading. Please wait.

Wicked Game Tab

version 1
version 1

Whole song

63,960 views 627 this week
3 commentsread comments
1 2 3 4 5
excellent!
x 68
add to favorites
launch autoscroll
font size
0
reset
how to read this tab
guitar tuner
Tab Pro tools
  • play this tab
  • loop segment
  • change instrument
  • show fretboard
  • metronome
×
Best way to learn
"Wicked Game"
Autoscroll
slow
fast
+/-
esc
set tempo
stop
Contributor
Capo
2nd fret
[Riff 1]
e|----------------|----------------|----------------|----------------|
B|--3-----3-------|--2-----2-------|--0-----0-------|--0-----0-------|
G|----4-----4---4-|----2-----2---0-|----1-----1-1h2-|----1-----1---0-|
D|------4-----4---|------2-----2---|------2-----2---|-------2----2---|
A|2---------------|0---------------|----------------|----------------|
E|----------------|----------------|0---------------|0---------------|


[Riff 2] (only appears after the chorus in some versions):
e|--2-------------|--------------|----------------|----------------|
B|----3---5-2-----|--2-------2---|0-----0---------|0-----0---------|
G|--------------4-|----2---2---2-|--1-----1---1h2-|--1-----1---0---|
D|----------------|------2-------|----2-----2-2---|----2-----2-----|
A|2-----2-----2---|0-------------|----------------|--------------0-| 
E|----------------|--------------|0---------------|0---------------|


***********************************
| h   Hummer-on
***********************************
comments
print report bad tab
3 comments total.
+8 reply
Filip_alien wrote on September 14 2013, 05:11 am

The world was on fire, and no one could save me but you
It's strange what desire will make foolish people do
I never dreamed that I'd need somebody like you
I never dreamed that I'd know somebody like you

And I wanna fall in love
And I wanna fall in love with you
with you

What a wicked game you play, you make me feel this way
What a wicked thing to do, make me dream of you
What a wicked thing to say, never felt that way
What a wicked thing to do, make me dream of you

And I wanna fall in love
And I wanna fall in love with you
with you

My world was on fire, and no one could save me but you
It's strange what desire will make foolish people do
I never dreamed that I'd need somebody like you
I never dreamed that I'd miss somebody like you

And I wanna fall in love
And I wanna fall in love
And I wanna fall in love with you
with you

Nobody loves no one

0 reply
dediosria wrote on April 15 2016, 06:18 am, edited at 06:21 am

Shouldn't be like this?
e|----------------|----------------|----------------------------------|
B|--3-----3-------|--2-----2-----0-|--0-----0-----------0-----0-------|
G|----4-----4---4-|----2-----2-----|----1-----1-1h2-1-----1-----1---0-|
D|------4-----4---|------2-----2---|------2------------------2----2---|
A|2---------------|0---------------|----------------------------------|
E|----------------|----------------|0---------------0-----------------|

0 reply
dediosria wrote on April 15 2016, 07:05 am, edited at 07:05 am

sorry... I mean this one..Intro??
e|----------------|----------------|--------------------|------------------|B|--3-----3-------|--2-----2-----0-|--0-----0-----------|----0-------------|G|----4-----4---4-|----2-----2-----|----1-----1-1h2-1---|------1------0----|D|------4-----4---|------2-----2---|------2-------------|---------2--------|A|2---------------|0---------------|--------------------|--0---------------|E|----------------|----------------|0---------------0---|------------------|

I want to post or [tab]
guest
You may want to rate the tab now too:
select rating
Please do not post tabs as comments. Select "correction" instead!