Oops, an error
Loading. Please wait.

And The Snow Falls Tab

1,855 views 3 this week
1 commentread comment
1 2 3 4 5
please rate
add to favorites
launch autoscroll
font size
0
reset
how to read this tab
guitar tuner
Autoscroll
slow
fast
+/-
esc
set tempo
stop
Help us to improve Ultimate-Guitar.com Take our survey!
×
Author
-------------------------------------------------------------------------------
                                                And The Snow Falls - James Wetzel
-------------------------------------------------------------------------------
Tabbed by: junior619
Email: junior3619@gmail.com

Tuning: standard (EADGBe)

| /  slide up
| \  slide down
| h  hammer-on
| p  pull-off
| ~  vibrato
| +  harmonic
| x  Mute note


e|--5h7-8---8p7p5--7-5-3---5-3\1---3-1-0-------------------0--0-0-0-0-0-0----|
B|-----------------------------------------3~~--5-6-5------0--1-1-1-1-1-1----|
G|-----------------------------------------------------5-4-0--2-2-2-2-2-2----|
D|------7----------5-------3-------2-------0---------------0--2-2-2-2-2-2----|
A|---------------------------------------------------------------------------|
E|---------------------------------------------------------------------------|

link to site: http://jameswetzel.com/
Suggest correction
Give kudos to tab author, rate the tab!
1 2 3 4 5
comments
print report bad tab
1 comment total.
0 reply
rojas 10 wrote on December 19 2008, 12:05 am

This is a very good song. It may not be noticed too much but it should be. Great tab, but I was expecting a little more. U should add a little more cuz i believe there is a couple of more notes to it.

guest
You may want to rate the tab now too:
select rating
Please do not post tabs as comments. Select "correction" instead!