Oops, an error
Loading. Please wait.

Change tab

version 2
version 2

Whole song

25 views 1 this week
no commentswrite comment
1 2 3 4 5
3 more votes to show rating
add to favorites
×
Save as Personal and add changes to this tab that will be seen only by you. Learn more ›
×
You can save this tab as Personal to edit and correct it or add notes. All changes will be seen only by you. Learn more »
launch autoscroll
font size
0
reset
how to read this tab
guitar tuner
edit
Autoscroll
slow
fast
+/-
esc
set tempo
stop
About this tab version
Lyrics, more in depth tab. Was this info helpful? Yes No
[intro]
Tempo = 120 bpm
4/4 time

e|---3-3-3-3-3-3-3-3-3-3---0-0-0-0-0-0-0-0-0-0-0---3-3-3-3-3-3-3-3-3-3-3---3-3-3-3-3-3-3-3-3-3-3---|
B|---3-3-3-3-3-3-3-3-3-3---3-3-3-3-3-3-3-3-3-3-3---3-3-3-3-3-3-3-3-3-3-3---3-3-3-3-3-3-3-3-3-3-3---|
G|---0-0-0-0-0-0-0-0-0-0---0-0-0-0-0-0-0-0-0-0-0---0-0-0-0-0-0-0-0-0-0-0---2-2-2-2-2-0-0-0-0-0-0---|
D|---0-0-0-0-0-0-0-0-0-0---2-2-2-2-2-2-2-2-2-2-2---2-2-2-2-2-2-2-2-2-2-2---0-0-0-0-0-0-0-0-0-0-0---|2X 
A|---2-2-2-2-2-2-2-2-2-2---2-2-2-2-2-2-2-2-2-2-2---3-3-3-3-3-3-3-3-3-3-3---0-0-0-0-0-0-0-0-0-0-0---|
E|-3-3-3-3-3-3-3-3-3-3-3---0-0-0-0-0-0-0-0-0-0-0---0-0-0-0-0-0-0-0-0-0-0-------------2-2-2-2-2-2---|
  (G)                     (Em7)                   (C)

[Verse 1]
e|-3-3-3-3-3-3-3-3-3-3-3---0-0-0-0-0-0-0-0-0-0-0---3-3-3-3-3-3-3-3-3-3-3---3-3-3-3-3-3-3-3-3-3-3---|
B|-3-3-3-3-3-3-3-3-3-3-3---3-3-3-3-3-3-3-3-3-3-3---3-3-3-3-3-3-3-3-3-3-3---3-3-3-3-3-3-3-3-3-3-3---|
G|-0-0-0-0-0-0-0-0-0-0-0---0-0-0-0-0-0-0-0-0-0-0---0-0-0-0-0-0-0-0-0-0-0---2-2-2-2-2-0-0-0-0-0-0---|
D|-0-0-0-0-0-0-0-0-0-0-0---2-2-2-2-2-2-2-2-2-2-2---2-2-2-2-2-2-2-2-2-2-2---0-0-0-0-0-0-0-0-0-0-0---| 
A|-2-2-2-2-2-2-2-2-2-2-2---2-2-2-2-2-2-2-2-2-2-2---3-3-3-3-3-3-3-3-3-3-3---0-0-0-0-0-0-0-0-0-0-0---|
E|-3-3-3-3-3-3-3-3-3-3-3---0-0-0-0-0-0-0-0-0-0-0---0-0-0-0-0-0-0-0-0-0-0-------------2-2-2-2-2-2---|
  (G)                     (Em7)                   (C)                     (D)       (D7)
  Everyone is watching     Everyone is waiting     Everywhere we look now  all there is is hating

e|-3-3-3-3-3-3-3-3-3-3-3---0-0-0-0-0-0-0-0-0-0-0---3-3-3-3-3-3-3-3-3-3-3---3-3-3-3-3-3-3-3-3-3-3---|
B|-3-3-3-3-3-3-3-3-3-3-3---3-3-3-3-3-3-3-3-3-3-3---3-3-3-3-3-3-3-3-3-3-3---3-3-3-3-3-3-3-3-3-3-3---|
G|-0-0-0-0-0-0-0-0-0-0-0---0-0-0-0-0-0-0-0-0-0-0---0-0-0-0-0-0-0-0-0-0-0---2-2-2-2-2-0-0-0-0-0-0---|
D|-0-0-0-0-0-0-0-0-0-0-0---2-2-2-2-2-2-2-2-2-2-2---2-2-2-2-2-2-2-2-2-2-2---0-0-0-0-0-0-0-0-0-0-0---| 
A|-2-2-2-2-2-2-2-2-2-2-2---2-2-2-2-2-2-2-2-2-2-2---3-3-3-3-3-3-3-3-3-3-3---0-0-0-0-0-0-0-0-0-0-0---|
E|-3-3-3-3-3-3-3-3-3-3-3---0-0-0-0-0-0-0-0-0-0-0---0-0-0-0-0-0-0-0-0-0-0-------------2-2-2-2-2-2---|
  (G)                     (Em7)                   (C)
 We just have no tolerance, we don't compromise. all we are is worthless objects in our own damn eyes.

e|-3-3-3-3-3-3-3-3-3-3-3---0-0-0-0-0-0-0-0-0-0-0---3-3-3-3-3-3-3-3-3-3-3---3-3-3-3-3-3-3-3-3-3-3---|
B|-3-3-3-3-3-3-3-3-3-3-3---3-3-3-3-3-3-3-3-3-3-3---3-3-3-3-3-3-3-3-3-3-3---3-3-3-3-3-3-3-3-3-3-3---|
G|-0-0-0-0-0-0-0-0-0-0-0---0-0-0-0-0-0-0-0-0-0-0---0-0-0-0-0-0-0-0-0-0-0---2-2-2-2-2-0-0-0-0-0-0---|
D|-0-0-0-0-0-0-0-0-0-0-0---2-2-2-2-2-2-2-2-2-2-2---2-2-2-2-2-2-2-2-2-2-2---0-0-0-0-0-0-0-0-0-0-0---| 
A|-2-2-2-2-2-2-2-2-2-2-2---2-2-2-2-2-2-2-2-2-2-2---3-3-3-3-3-3-3-3-3-3-3---0-0-0-0-0-0-0-0-0-0-0---|
E|-3-3-3-3-3-3-3-3-3-3-3---0-0-0-0-0-0-0-0-0-0-0---0-0-0-0-0-0-0-0-0-0-0-------------2-2-2-2-2-2---|
  (G)                     (Em7)                   (C)
 Caring for each other   just does not exist.  all we want to do is solve our problems with our fists, so lets

[Chorus]
e|-0-0-0-0-0-0-0-0-0-0-0---3-3-3-3-3-3-3-3-3-3-3---3-3-3-3-3-3-3-3-3-3-3---2-2-2-2-2-2-2-2-2-2-2---|
B|-3-3-3-3-3-3-3-3-3-3-3---3-3-3-3-3-3-3-3-3-3-3---3-3-3-3-3-3-3-3-3-3-3---3-3-3-3-3-3-3-3-3-3-3---|
G|-0-0-0-0-0-0-0-0-0-0-0---0-0-0-0-0-0-0-0-0-0-0---0-0-0-0-0-0-0-0-0-0-0---2-2-2-2-2-2-2-2-2-2-2---|2X
D|-2-2-2-2-2-2-2-2-2-2-2---2-2-2-2-2-2-2-2-2-2-2---0-0-0-0-0-0-0-0-0-0-0---0-0-0-0-0-0-0-0-0-0-0---|
A|-2-2-2-2-2-2-2-2-2-2-2---3-3-3-3-3-3-3-3-3-3-3---2-2-2-2-2-2-2-2-2-2-2---------------------------|
E|-0-0-0-0-0-0-0-0-0-0-0---0-0-0-0-0-0-0-0-0-0-0---3-3-3-3-3-3-3-3-3-3-3---------------------------|
 (Em7)                    (C)                     (G)                     (D)

Change this, rearrange this. Don't contribute, try to change it. Be forgiving, to all living, cause life's too
short to hold a grudge for time. Please just...

[interlude]
e|-3-3-3-3-3-3-3-3-3-3-3---0-0-0-0-0-0-0-0-0-0-0---3-3-3-3-3-3-3-3-3-3-3---3-3-3-3-3-3-3-3-3-3-3---|
B|-3-3-3-3-3-3-3-3-3-3-3---3-3-3-3-3-3-3-3-3-3-3---3-3-3-3-3-3-3-3-3-3-3---3-3-3-3-3-3-3-3-3-3-3---|
G|-0-0-0-0-0-0-0-0-0-0-0---0-0-0-0-0-0-0-0-0-0-0---0-0-0-0-0-0-0-0-0-0-0---2-2-2-2-2-0-0-0-0-0-0---|
D|-0-0-0-0-0-0-0-0-0-0-0---2-2-2-2-2-2-2-2-2-2-2---2-2-2-2-2-2-2-2-2-2-2---0-0-0-0-0-0-0-0-0-0-0---| 
A|-2-2-2-2-2-2-2-2-2-2-2---2-2-2-2-2-2-2-2-2-2-2---3-3-3-3-3-3-3-3-3-3-3---0-0-0-0-0-0-0-0-0-0-0---|
E|-3-3-3-3-3-3-3-3-3-3-3---0-0-0-0-0-0-0-0-0-0-0---0-0-0-0-0-0-0-0-0-0-0-------------2-2-2-2-2-2---|
  (G)                     (Em7)                   (C)                     (D)       (D7)
 Try--------------------
e|-3-3-3-3-3-3-3-3-3-3-3---0-0-0-0-0-0-0-0-0-0-0---3-3-3-3-3-3-3-3-3-3-3---3-3-3-3-3-3-3-3-3-3-3---|
B|-3-3-3-3-3-3-3-3-3-3-3---3-3-3-3-3-3-3-3-3-3-3---3-3-3-3-3-3-3-3-3-3-3---3-3-3-3-3-3-3-3-3-3-3---|
G|-0-0-0-0-0-0-0-0-0-0-0---0-0-0-0-0-0-0-0-0-0-0---0-0-0-0-0-0-0-0-0-0-0---2-2-2-2-2-0-0-0-0-0-0---|
D|-0-0-0-0-0-0-0-0-0-0-0---2-2-2-2-2-2-2-2-2-2-2---2-2-2-2-2-2-2-2-2-2-2---0-0-0-0-0-0-0-0-0-0-0---| 
A|-2-2-2-2-2-2-2-2-2-2-2---2-2-2-2-2-2-2-2-2-2-2---3-3-3-3-3-3-3-3-3-3-3---0-0-0-0-0-0-0-0-0-0-0---|
E|-3-3-3-3-3-3-3-3-3-3-3---0-0-0-0-0-0-0-0-0-0-0---0-0-0-0-0-0-0-0-0-0-0-------------2-2-2-2-2-2---|
  (G)                     (Em7)                   (C)

[verse 2]
e|-3-3-3-3-3-3-3-3-3-3-3---0-0-0-0-0-0-0-0-0-0-0---3-3-3-3-3-3-3-3-3-3-3---3-3-3-3-3-3-3-3-3-3-3---|
B|-3-3-3-3-3-3-3-3-3-3-3---3-3-3-3-3-3-3-3-3-3-3---3-3-3-3-3-3-3-3-3-3-3---3-3-3-3-3-3-3-3-3-3-3---|
G|-0-0-0-0-0-0-0-0-0-0-0---0-0-0-0-0-0-0-0-0-0-0---0-0-0-0-0-0-0-0-0-0-0---2-2-2-2-2-0-0-0-0-0-0---|
D|-0-0-0-0-0-0-0-0-0-0-0---2-2-2-2-2-2-2-2-2-2-2---2-2-2-2-2-2-2-2-2-2-2---0-0-0-0-0-0-0-0-0-0-0---| 
A|-2-2-2-2-2-2-2-2-2-2-2---2-2-2-2-2-2-2-2-2-2-2---3-3-3-3-3-3-3-3-3-3-3---0-0-0-0-0-0-0-0-0-0-0---|
E|-3-3-3-3-3-3-3-3-3-3-3---0-0-0-0-0-0-0-0-0-0-0---0-0-0-0-0-0-0-0-0-0-0-------------2-2-2-2-2-2---|
  (G)                     (Em7)                   (C)
 Everyone is watching      everyone is waiting     no one's even hopeful   everyone's so jaded

e|-3-3-3-3-3-3-3-3-3-3-3---0-0-0-0-0-0-0-0-0-0-0---3-3-3-3-3-3-3-3-3-3-3---3-3-3-3-3-3-3-3-3-3-3---|
B|-3-3-3-3-3-3-3-3-3-3-3---3-3-3-3-3-3-3-3-3-3-3---3-3-3-3-3-3-3-3-3-3-3---3-3-3-3-3-3-3-3-3-3-3---|
G|-0-0-0-0-0-0-0-0-0-0-0---0-0-0-0-0-0-0-0-0-0-0---0-0-0-0-0-0-0-0-0-0-0---2-2-2-2-2-0-0-0-0-0-0---|
D|-0-0-0-0-0-0-0-0-0-0-0---2-2-2-2-2-2-2-2-2-2-2---2-2-2-2-2-2-2-2-2-2-2---0-0-0-0-0-0-0-0-0-0-0---| 
A|-2-2-2-2-2-2-2-2-2-2-2---2-2-2-2-2-2-2-2-2-2-2---3-3-3-3-3-3-3-3-3-3-3---0-0-0-0-0-0-0-0-0-0-0---|
E|-3-3-3-3-3-3-3-3-3-3-3---0-0-0-0-0-0-0-0-0-0-0---0-0-0-0-0-0-0-0-0-0-0-------------2-2-2-2-2-2---|
  (G)                     (Em7)                   (C)
(Good times never come and bad times always seem to last. everything's so screwed up cause we live our 
 lives to fast, so lets)

[Chorus]
e|-0-0-0-0-0-0-0-0-0-0-0---3-3-3-3-3-3-3-3-3-3-3---3-3-3-3-3-3-3-3-3-3-3---2-2-2-2-2-2-2-2-2-2-2---|
B|-3-3-3-3-3-3-3-3-3-3-3---3-3-3-3-3-3-3-3-3-3-3---3-3-3-3-3-3-3-3-3-3-3---3-3-3-3-3-3-3-3-3-3-3---|
G|-0-0-0-0-0-0-0-0-0-0-0---0-0-0-0-0-0-0-0-0-0-0---0-0-0-0-0-0-0-0-0-0-0---2-2-2-2-2-2-2-2-2-2-2---|2X
D|-2-2-2-2-2-2-2-2-2-2-2---2-2-2-2-2-2-2-2-2-2-2---0-0-0-0-0-0-0-0-0-0-0---0-0-0-0-0-0-0-0-0-0-0---|
A|-2-2-2-2-2-2-2-2-2-2-2---3-3-3-3-3-3-3-3-3-3-3---2-2-2-2-2-2-2-2-2-2-2---------------------------|
E|-0-0-0-0-0-0-0-0-0-0-0---0-0-0-0-0-0-0-0-0-0-0---3-3-3-3-3-3-3-3-3-3-3---------------------------|
 (Em7)                    (C)                     (G)                     (D)

(Change this, rearrange this. Don't contribute, try to change it. Be forgiving, to all living, cause life's 
too short to hold a grudge for time. )
e|-3-3-3-3-3-3-3-3-3-3-3---0-0-0-0-0-0-0-0-0-0-0---3-3-3-3-3-3-3-3-3-3-3---3-3-3-3-3-3-3-3-3-3-3---|
B|-3-3-3-3-3-3-3-3-3-3-3---3-3-3-3-3-3-3-3-3-3-3---3-3-3-3-3-3-3-3-3-3-3---3-3-3-3-3-3-3-3-3-3-3---|
G|-0-0-0-0-0-0-0-0-0-0-0---0-0-0-0-0-0-0-0-0-0-0---0-0-0-0-0-0-0-0-0-0-0---2-2-2-2-2-0-0-0-0-0-0---|
D|-0-0-0-0-0-0-0-0-0-0-0---2-2-2-2-2-2-2-2-2-2-2---2-2-2-2-2-2-2-2-2-2-2---0-0-0-0-0-0-0-0-0-0-0---| 
A|-2-2-2-2-2-2-2-2-2-2-2---2-2-2-2-2-2-2-2-2-2-2---3-3-3-3-3-3-3-3-3-3-3---0-0-0-0-0-0-0-0-0-0-0---|
E|-3-3-3-3-3-3-3-3-3-3-3---0-0-0-0-0-0-0-0-0-0-0---0-0-0-0-0-0-0-0-0-0-0-------------2-2-2-2-2-2---|
  (G)                     (Em7)                   (C)                                       so let's

e|-0-0-0-0-0-0-0-0-0-0-0---3-3-3-3-3-3-3-3-3-3-3---3-3-3-3-3-3-3-3-3-3-3---2-2-2-2-2-2-2-2-2-2-2---|
B|-3-3-3-3-3-3-3-3-3-3-3---3-3-3-3-3-3-3-3-3-3-3---3-3-3-3-3-3-3-3-3-3-3---3-3-3-3-3-3-3-3-3-3-3---|
G|-0-0-0-0-0-0-0-0-0-0-0---0-0-0-0-0-0-0-0-0-0-0---0-0-0-0-0-0-0-0-0-0-0---2-2-2-2-2-2-2-2-2-2-2---|2X
D|-2-2-2-2-2-2-2-2-2-2-2---2-2-2-2-2-2-2-2-2-2-2---0-0-0-0-0-0-0-0-0-0-0---0-0-0-0-0-0-0-0-0-0-0---|
A|-2-2-2-2-2-2-2-2-2-2-2---3-3-3-3-3-3-3-3-3-3-3---2-2-2-2-2-2-2-2-2-2-2---------------------------|
E|-0-0-0-0-0-0-0-0-0-0-0---0-0-0-0-0-0-0-0-0-0-0---3-3-3-3-3-3-3-3-3-3-3---------------------------|
 (Em7)                    (C)                     (G)                     (D)

(Change this, rearrange this. Don't contribute, try to change it. Be forgiving, to all living, cause life's 
too short to hold a grudge for time. please just...)
e|-3-3-3-3-3-3-3-3-3-3-3---0-0-0-0-0-0-0-0-0-0-0---3-3-3-3-3-3-3-3-3-3-3---3-3-3-3-3-3-3-3-3-3-3---|
B|-3-3-3-3-3-3-3-3-3-3-3---3-3-3-3-3-3-3-3-3-3-3---3-3-3-3-3-3-3-3-3-3-3---3-3-3-3-3-3-3-3-3-3-3---|
G|-0-0-0-0-0-0-0-0-0-0-0---0-0-0-0-0-0-0-0-0-0-0---0-0-0-0-0-0-0-0-0-0-0---2-2-2-2-2-0-0-0-0-0-0---|2X
D|-0-0-0-0-0-0-0-0-0-0-0---2-2-2-2-2-2-2-2-2-2-2---2-2-2-2-2-2-2-2-2-2-2---0-0-0-0-0-0-0-0-0-0-0---| 
A|-2-2-2-2-2-2-2-2-2-2-2---2-2-2-2-2-2-2-2-2-2-2---3-3-3-3-3-3-3-3-3-3-3---0-0-0-0-0-0-0-0-0-0-0---|
E|-3-3-3-3-3-3-3-3-3-3-3---0-0-0-0-0-0-0-0-0-0-0---0-0-0-0-0-0-0-0-0-0-0-------------2-2-2-2-2-2---|
  (G)                     (Em7)                   (C)                                    Please just
 Try--------------------

e|-3------|
B|-3------|
G|-0------|
D|-0------|
A|-2------|
E|-3------|
 Try 
(G) let ring

            
            
Suggest correction
Creating personal tab
Creating personal tab
You can edit any tab online and save it as your Personal.

You can edit, replace or remove any tab part or add personal notes – all changes will be seen only by you.

Personal tabs can be accessed anytime from any device, even offline.
Learn more »
Give kudos to tab author, rate the tab!
1 2 3 4 5
comments
print report bad tab
guest
You may want to rate the tab now too:
select rating
Wanna post a correction for this tab? Suggest correction