Oops, an error
Loading. Please wait.

Every Moment chords

103 views 1 this week
no commentswrite comment
1 2 3 4 5
x 3
add to favorites
×
Save as Personal and add changes to this tab that will be seen only by you. Learn more ›
×
You can save this tab as Personal to edit and correct it or add notes. All changes will be seen only by you. Learn more »
launch autoscroll
font size
0
reset
transpose
0
reset
display chords
guitar tuner
edit
Autoscroll
slow
fast
+/-
esc
set tempo
stop
About this tab version
Explain why your version is different. Was this info helpful? Yes No
Strumming
There is no strumming pattern for this song yet. and get +5 IQ
SONG:   EVERY MOMENT
ARTIST: JAMESTOWN STORY
TAB BY: DON CZARSKI
EMAIL:  GUITARZAN7@HOTMAIL.COM


                      EVERY MOMENT
                    JAMESTOWN STORY

INTRO: (NOTE: See bottom of tab for other guitars playing INTRO)
A   A E A   A E     


VERSE:
 A        E                    A
Time, oh time was all that we had
                E
And all I ever wanted
    A                         E
So how did this friend to me become my enemy
 A                                 E
Haunting me with days that you're gone


CHORUS:
    Dbm        B
Oh where, oh where
         A     E
Could my angel be
  Dbm         B
I told you I loved you
     A            E
And then set you free

  Dbm            B
I hope that you wake up 
     A           E
And come back to me
           Dbm       
Cause I'm tired 
     B          A     E  A
And miss every moment

A E A   A E 


VERSE:
  A           E                       A
Smile, your smile still paints every room 
 A                E
That you've ever walked in
  A              E
Breath, I cant breath 
          A                         E
When the air tastes so different to me


CHORUS:
    Dbm        B
Oh where, oh where
         A     E
Could my angel be
  Dbm         B
I told you I loved you
     A            E
And then set you free

  Dbm            B
I hope that you wake up 
     A           E
And come back to me
           Dbm       
Cause I'm tired 
     B          A     
And miss every moment


BREAK:
         B
All the times that we had
         A
All the nights that we shared
          B
All the things we would do
          A          B
All the thinking of you
      Dbm
Every hour that we gave
         B
All the plans that we made 
         Dbm
Now your gone and my world
          Abm                E 
Has been spinning backwards since
  E
Spinning backwards since
     B
Spinning


CHORUS:
    Dbm        B
Oh where, oh where
         A     E
Could my angel be
  Dbm         B
I told you I loved you
     A            E
And then set you free

  Dbm            B
I hope that you wake up 
     A           E
And come back to me
           Dbm       
Cause I'm tired 
     B          A     E  
And miss every moment


OUTRO:
   Dbm              B
I hope that you'll wake up 
     A           E
And come back to me
           Dbm       
Cause I'm tired 
     B          A     E  
And miss every moment
        Dbm          
I'm so tired 
     B          A          
and miss every moment

 
============================ INTRO ============================

NOTE: The INTRO is played by 2 guitars. My friend ayreon77 made
      the tab for it since I could not really hear it through 
      The ipad speakers that well. Thanks ayreon77


  Guitar 1
e|-12----|----------------------------------|--------------------------|
B|----12-|-----------------s--s----h--p-----|--------------------------|
G|-------|---------------11\13/11-9-11-9--9-|--------------------------|
D|-------|----------------------------------|--------------------------|
A|-------|----------------------------------|--------------------------|
E|-------|----------------------------------|--------------------------|
                                                                     
  Guitar 2                                                             
e|-------|----------------------------------|--------------------------|
B|-------|---h------h--p--------------------|---------h--p-------------|
G|-------|-11-13--11-13-11--9---------------|--------9-11-9------------|
D|-------|----------------------------------|--h---9--------11-9-------|
A|-------|----------------------------------|-9-11---------------12-11-|
E|-------|----------------------------------|--------------------------|



e|-12----|-------------------|
B|----12-|---s-s------s---12-|
G|-------|-11\9/11-9-9\11----|
D|-------|-------------------|
A|-------|-------------------|
E|-------|-------------------|




            
            
Suggest correction
Creating personal tab
Creating personal tab
You can edit any tab online and save it as your Personal.

You can edit, replace or remove any tab part or add personal notes – all changes will be seen only by you.

Personal tabs can be accessed anytime from any device, even offline.
Learn more »
Give kudos to tab author, rate the tab!
1 2 3 4 5
comments
print report bad tab
guest
You may want to rate the tab now too:
select rating
Wanna post a correction for this tab? Suggest correction