Oops, an error
Loading. Please wait.

Goodbye Im Sorry Chords

version 5
version 5

Interactive

3,486 views 9 this week
no commentswrite comment
1 2 3 4 5
x 5
add to favorites
launch autoscroll
font size
0
reset
transpose
0
reset
simplify chords
display chords
guitar tuner
Autoscroll
slow
fast
+/-
esc
set tempo
stop
Help us to improve Ultimate-Guitar.com Take our survey!
×
Author
Difficulty
novice
Title: Goodbye, I'm Sorry
Artist: Jamestown Story / And Then I Turned Seven
Tuning: eadgbe with capo on first fret

Chords
   G   C   Em7 D   Dsus4
e|-3---0---3---2---3---|
B|-0---1---3---3---3---|
G|-0---0---0---2---2---|
D|-0---2---2---0---0---|
A|-2---3---2-----------|
E|-3-------0-----------|

if you want you can play the C as a Cadd9(x32033)

[Intro]
Capo on 1st fret
e|----------------------------------------------------------------------------------|
B|-0--0-0-0-0--0-0-0-0-1--1-1-1-1--1-1-1-1-3--3-3-3-3--3-3-3-3p1--1-1-1-1--1-1-1-1--|
G|-0--0-0-0-0--0-0-0-0-0--0-0-0-0--0-0-0-0-0--0-0-0-0--0-0-0-0-0--0-0-0-0--0-0-0-0--|
D|-0--0-0-0-0--0-0-0-0-0--0-0-0-0--0-0-0-0-0--0-0-0-0--0-0-0-0-0--0-0-0-0--0-0-0-0--|
A|----------------------------------------------------------------------------------|
E|----------------------------------------------------------------------------------|

e|----------------------------------------------------------------------------------|
B|-0--0-0-0-0--0-0-0-0-1--1-1-1-1--1-1-1-1-3--3-3-3-3--3-3-3-3-1--------------------|
G|-0--0-0-0-0--0-0-0-0-0--0-0-0-0--0-0-0-0-0--0-0-0-0--0-0-0-0-0--------------------|
D|-0--0-0-0-0--0-0-0-0-0--0-0-0-0--0-0-0-0-0--0-0-0-0--0-0-0-0-0--------------------|
A|----------------------------------------------------------------------------------|
E|----------------------------------------------------------------------------------|

G  C  Em7  C
G  C  Em7  D  C

[Verse]
             G    Dsus4
Time has run out, for me.
Em7                      C                       G
Everything's distant and I don't know what to believe.
       Dsus4   Em7                  C
It's so hard, lost in the world confusion.
              G           Dsus4
And I need to leave, for a while.
Em7                     C                        G
Life is so meaningless, there is nothing worth a smile.
   Dsus4       C
So goodbye, I'll miss you.

[Chorus 1]
        G                     C
And I'm sorry, but this is my fate.
              Em7                   C
Everything is worthless, no one who wants me to stay.
        G                        C
And I'm sorry, but I've waited too long.
   Em7                D                    C
So here's my goodbye, no one will cry over me.
                  G     C  Em7  C
I'm not worth any tears.

G  C  Em7  D  C

[Verse]
              G          Dsus4
It's been the years, of abuse.
Em7                        C
Neglected to treat the dissorder,
                 G          Dsus4
That controls my youth, for so long.
Em7                   C                    G
I'm in a fleshy tomb, burried up above the ground.
      Dsus4      Em7
It's no use,     why should I hold on?
    C                                G
It's been five years, don't need one more.
       Dsus4       C
So goodbye, life's abuse.

[Chorus/Bridge]
        G                     C
And I'm sorry, but this is my fate.
              Em7                   C
Everything is worthless, no one who wants me to stay.
        G                      C
And I'm sorry, but I've waited too long.
   Em7                D                    C
So here's my goodbye, no one will cry over me.
                  Em7
I'm not worth any tears.

      D                                 C
Every 18 minutes, somebody dies from a suicide.
                                       Em7
Every 43 seconds, somebody attempts one. 
                            D
If you, or anybody you know, is suicidal, 
          C
Call 1-800-784-2433.

Em7  Em7  D  D  C (C)
Em7  Em7  D  D  C (C)

[Chorus/Outro]
        G                     C
And I'm sorry, but this is my fate.
              Em7                   C
Everything is worthless, no one who wants me to stay.
        G                        C
And I'm sorry, but I've waited too long.
   Em7                D                    C
So here's my goodbye, no one will cry over me.
   Em7                D                    C
So here's my goodbye, no one will cry over me.
                  G     C  Em7  C
I'm not worth any tears.

G  C  Em7  D  C
Suggest correction
comments
print report bad tab
guest
You may want to rate the tab now too:
select rating
Wanna post a correction for this tab? Suggest correction