Oops, an error
Loading. Please wait.

I Miss You Tab

version 5
version 5
1,105 views 1 this week
no commentswrite comment
1 2 3 4 5
please rate
add to favorites
launch autoscroll
font size
0
reset
how to read this tab
guitar tuner
Autoscroll
slow
fast
+/-
esc
set tempo
stop
Help us to improve Ultimate-Guitar.com Take our survey!
×
Author
Difficulty
intermediate
This is one of their best songs, and I just needed to tab it, so my band can play it, 
if you have any quesions email me at platform3jp@yahoo.com
-Jake Pfeffer


Inrto/Verse
Pre Chorus
Chrous
Intro/Verse
Pre Chorus
Chorus
Intro/Verse
Interlude


Intro/Verse


e  --------------------------------------------------------------------------|
B  ------6-----6-----6-----6-----6------6-----6-----6------6-----6-----6-----|
G  --3-3---3-3-----------------------------------------3-3---3-3-------------|
D  --------------------------5-5---5-5----3-3---3-3--------------------------|
A  --------------6-6---6-6-----------------------------------------6-6---6-6-|
E  --------------------------------------------------------------------------|


e  --------------------------|
B  -6-----6-----6-----6------|
G  ---------------2-2---2-2--|
D  ---5-5---5-5--------------|
A  --------------------------|
E  --------------------------|

Pre Chorus:
e  ---------------------------------------------------|
B  -----6-----6-----6-----6-----6-----6-----6-----6---|
G  -3-3---3-3---3-3---3-3---3-3---3-3---3-3---3-3-----|
D  ---------------------------------------------------|
A  ---------------------------------------------------|
E  ---------------------------------------------------|


Chorus:( just get the feel for it)
e  --------------------------|
B  --------------------------|
G  -3-----5------------------|
D  -3-----5-----5-----3------|
A  -1-----3-----5-----3------|
E  -------------3-----1------|


Interlude/End Chorus( get the feel for it )

e  -------------------|
B  -------------------|
G  -3-----------------|
D  -3-----3-----5-----|
A  -1-----3-----5-----|
E  -------1-----3-----|


End on
e  -------|
B  -------|
G  --3~~--
D  --3~~--
A  --1~~--
E  -------
Suggest correction
Give kudos to tab author, rate the tab!
1 2 3 4 5
comments
print report bad tab
guest
You may want to rate the tab now too:
select rating
Wanna post a correction for this tab? Suggest correction