Oops, an error
Loading. Please wait.

I Miss You Tab

version 6
version 6
820 views 1 this week
1 commentread comment
1 2 3 4 5
please rate
add to favorites
launch autoscroll
font size
0
reset
how to read this tab
guitar tuner
Autoscroll
slow
fast
+/-
esc
set tempo
stop
Help us to improve Ultimate-Guitar.com Take our survey!
×
Contributor
Nathan. 27
I Miss You
And Then I turned Seven
Broken Summer

Tabbed by Nathan.

-----------------------------------------------------------------------

Amazing Song,
Amazing Band.

The other tabs for this song are pretty much all correct…but the tunings are more complicated.

The real tuning for this song is:
All tuned up a semitone, but the second string is tuned down a semitone.

Like this:
F Bb Eb Ab Bb F

But, when I am playing guitar (unless I’m playing along with the music) I don’t bother
tune all of the strings up. It is a semitone lower than how it is recorded, but it still
good.

Unless you really want to sound exactly the same as the song (and I don’t know why you
need to that badly)
Tune to:
E A D G A E

Which is easier and faster to tune to.

Also, there are two guitars, one plays the chorus and the other plays the verse, they
slightly overlap between the verse and chorus. But you can pretty much play both parts on
guitar.


Intro/Verse
F |---0---0---0---0---0---0---0---0---0---0---0---0---0---0---0---0-|
Bb|--0-0-0-0-0-0-0-0-0-0-0-0-0-0-0-0-0-0-0-0-0-0-0-0-0-0-0-0-0-0-0-0|
Ab|-----------------------------------------------------------------|
Eb|-7---7---0---0---4---4-\-2---2-/-7---7---0---0---4---4---4/6-6---|X3
Bb|-----------------------------------------------------------------|
F |-----------------------------------------------------------------|

Pre-Chorus
F |---0---0---0---0---0---0---0---0---------------------------------|
Bb|--0-0-0-0-0-0-0-0-0-0-0-0-0-0-0-0--------------------------------|
Ab|-----------------------------------------------------------------|
Eb|-7---7---7---7---7---7---7---7-----------------------------------|
Bb|-----------------------------------------------------------------|
F |-----------------------------------------------------------------|

Chorus
F |--0--0-000-0--00--0-000-0--0-00--0-000-0--00-0-000-0--0--000~----|
Bb|--0--0-000-0--00--0-000-0--0-00--0-000-0--00-0-000-0-—0--000~----|
Ab|--2--2-222-2--22--2-222-2--2-22--2-222-2--22-2-222-2--2—-222~----|
Eb|--2--2-200-0--04--4-400-0--0-02--2-200-0--04-4-400-0—-0--002~----|
Bb|--0--0-000-0--04--4-400-0--0-00--0-000-0--04-4-400-0--0--000~----|
F |-----------------------------------------------------------------|


Intro/Verse X3

Pre-Chorus

Chorus X2

Intro/Verse X1

Outro                                                                              End on
F |-0-0000-0-0000-0-0000-0-0000-0-0000-0-0000-0-0000-0-0000-|   |-0-|
Bb|-0-0000-0-0000-0-0000-0-0000-0-0000-0-0000-0-0000-0-0000-|   |-0-|
Ab|-2-2222-2-2222-2-2222-2-2222-2-2222-2-2222-2-2222-2-2222-|X4 |-2-|
Eb|-2-2222-2-2222-0-0000-0-0000-4-4444-4-4444-0-0000-0-0000-|   |-2-|
Bb|-0-0000-0-0000-0-0000-0-0000-4-4444-4-4444-0-0000-0-0000-|   |-0-|
F |---------------------------------------------------------|   |---|
comments
We did not receive enough feedback on this tab! Please rate:
print report bad tab
1 2 3 4 5
1 comment total.
0 reply
lau13 11 wrote on June 6 2007, 11:00 am

Hi,
I like your tab, it's indeed easier. :)

But could you give me your strum patterns, ' cause I think mine aren't correct and i can't figure them out.

Thx

Lau

I want to post or [tab]
guest
You may want to rate the tab now too:
select rating
Please do not post tabs as comments. Select "correction" instead!