Oops, an error
Loading. Please wait.

In Loving Memory Tab

version 1
version 1

Acoustic

Whole song

6,376 views 1 this week
1 commentread comment
1 2 3 4 5
1 last vote to show rating
add to favorites
launch autoscroll
font size
0
reset
how to read this tab
guitar tuner
Autoscroll
slow
fast
+/-
esc
set tempo
stop
Help us to improve Ultimate-Guitar.com Take our survey!
×
Author
Difficulty
novice
-----------------------------------------------------------------------------
            In Loving Memory (Acoustic) - And Then I Turned Seven
-----------------------------------------------------------------------------
Tabbed by: Carl 
Email:ka_caloy@yahoo.com        

Tuning:EADGbe

Note: They really play the song in EACacc, but since I'm too lazy to tune it,
I decided to tab it myself. It doesn't sound exact, but it works for me

  Intro (x2)                           
e|--------XXX--------------XXX-------|
B|--------XXX--------------XXX-------|
G|--55555-XXX-55555--55555-XXX-44444-|
D|--55555-XXX-XXXXX--77777-XXX-33333-|
A|--33333-XXX-55555--77777-XXX-33333-|
E|--------XXX-33333--55555-XXX-11111-|

  Verse pt. 1 "You said yourself..."(listen for specific strumming)
e|--------------------------------------|
B|--------------------------------------|
G|--55555555-55555555-55555555-44444444-|
D|--55555555-XXXXXXXX-77777777-33333333-|
A|--33333333-55555555-77777777-33333333-|
E|-----------33333333-55555555-11111111-|

  verse pt. 2 "and now everything..." and Chorus (listen for strumming)
e|--------------------------------------|
B|--------------------------------------|
G|--5-555555-5-555555-5-555555-4-444444-|x2 for verse
D|--5-555555-X-XXXXXX-7-777777-3-333333-|x4 for chorus
A|--3-333333-5-555555-7-777777-3-333333-|
E|-----------3-333333-5-555555-1-111111-|

  Back to Intro x2
  Verse 1 x2
  Verse 2 x2
  chorus x2

Interlude:
  Guitar 1
e|-------------------------|
B|-------------------------|
G|--5~---5~---5~---5~--55--|Listen and you'll get it
D|--5~---5~---5~---5~--55--| x5
A|--3~---3~---3~---3~--33--|
E|-------------------------|

After guitar one plays that once, guitar two comes in with this:
e|-----------------------------------|
B|-----------------------------------|
G|--5-5-5-5-7-7-7-7-5-5-5-5-4-4-4-4--|
D|---5-5-5-5-5-5-5-5-5-5-5-5-5-5-5-5-| x4
A|-----------------------------------|
E|-----------------------------------|

  Chorus x4
  Intro x4
  End
Suggest correction
Give kudos to tab author, rate the tab!
1 2 3 4 5
comments
print report bad tab
1 comment total.
0 reply
gogeta2005 10 Nov 29, 2011 01:26 AM

This is so far from being accurate. Good try though.

guest
You may want to rate the tab now too:
select rating
Wanna post a correction for this tab? Suggest correction