Oops, an error
Loading. Please wait.

In Loving Memory Tab

version 1
version 1

Whole song

4,459 views 1 this week
1 commentread comment
1 2 3 4 5
worth learning
x 3
add to favorites
launch autoscroll
font size
0
reset
how to read this tab
guitar tuner
Tab Pro tools
  • play this tab
  • loop segment
  • change instrument
  • show fretboard
  • metronome
×
Best way to learn
"In Loving Memory"
Autoscroll
slow
fast
+/-
esc
set tempo
stop
Contributor
Difficulty
intermediate
-----------------------------------------------------------------------------
     In Loving Memory - And Then I Turned Seven
-----------------------------------------------------------------------------
Tabbed by: sg-rocker173
Email: N/A
AIM: bob173115

Riff A

Guitar One
e|-----------------------------------------|
B|-----------------------------------------|
G|-99---------44---------66--------99--88--|
A|-99---7-9---44---7-9---66---7-9--99--88--|
D|-777-9------227-9------447-9-----77--66--|
E|-----------------------------------------|
PM ..         ..         ..        ..  ..

Guitar Two
e|-----------------------------------------|
B|-----------------------------------------|
G|-99---------44---------66--------99--88--|
A|-99---------44---------66--------99--88--|
D|-77---------22---------44--------77--66--|
E|-----------------------------------------|
PM ..         ..         ..        ..  ..

Riff B
e|-[-Fig 1-------]--------------[*Fig 2*]--|
B|-[-------------]--------------[-------]--|
G|-[-------------]-----99-88----[-6~~~--]--|
A|-[-----7-9-7\6-]-x3--99-88----[-6~~~--]--|
D|-[-7-9---------]-----77-66----[-4~~~--]--|
E|-[-------------]--------------[-------]--|

Play Figure 1 3 times, then play the part after it. On the last time of playing this
Riff, let Figure 2 ring out into verse, or interlude. *DO NOT let it ring the last time
you play this riff.*

Guitar Two Plays Riff C Under this Riff

Riff C
e|-----------------------------------------|
B|-----------------------------------------|
G|-99999999---44444444---66666666--999-888-|
A|-99999999---44444444---66666666--999-888-|
D|-77777777---22222222---44444444--777-666-|
E|-----------------------------------------|

Riff D
e|-----------------------------------------|
B|-----------------------------------------|
G|-99-9\8---88-8/9---99-9\8---88-8/9-------|
A|-99-9\8---88-8/9---99-9\8---88-8/9-------|
D|-77-7\6---66-6/7---77-7\8---88-8/9-------|
E|-----------------------------------------|
PM ..   .   ..   .   ..   .   ..   .


Order:
Riff A x4 
Riff B x4 (Guitar Two Plays Riff C)

Riff D x4
Riff C x4
Riff B x4 (Guitar Two Plays Riff C)

Riff D x4
Riff C x4
Riff B x4 (Guitar Two Plays Riff C)

Interlude, done with clean guitar, I don't know it, feel free to contribute.

Riff C x2
Riff B x2 (Guitar Two Plays Riff C)
Riff A x2 (Play Guitar Two's part only)
Riff A x2 (Both Guitar Parts)

You could easily play with one guitar. ;) ^_^ A fun song to play, in my opinion.

Let me know if anything's incorrect, this is my first tab so yeah. :P




| /  slide up
| \  slide down
| h  hammer-on
| p  pull-off
| ~  let ring
| +  harmonic
| x  Mute note
=============================================================================


comments
We did not receive enough feedback on this tab! Please rate:
print report bad tab
1 2 3 4 5
1 comment total.
0 reply
sg-rocker173 wrote on October 6 2005, 06:11 am

Heh... oops.

Riff D
e|-----------------------------------------|
B|-----------------------------------------|
G|-99-9\8---88-8/9---99-9\8---88-8/9-------|
A|-99-9\8---88-8/9---99-9\8---88-8/9-------|
D|-77-7\6---66-6/7---77-7\8---88-8/9-------|
E|-----------------------------------------|
PM .. . .. . .. . .. .

The xx888x power chords at the end should be xx886x.

Sorry. :(

I want to post or [tab]
guest
You may want to rate the tab now too:
select rating
Please do not post tabs as comments. Select "correction" instead!