Oops, an error
Loading. Please wait.

Sunset Chords

version 3
version 3

Whole song

1,620 views 1 this week
1 commentread comment
1 2 3 4 5
x 4
add to favorites
launch autoscroll
font size
0
reset
transpose
0
reset
display chords
guitar tuner
Autoscroll
slow
fast
+/-
esc
set tempo
stop
Help us to improve Ultimate-Guitar.com Take our survey!
×
Author
Capo
3rd fret
Sunset by Jamestown Story

CAPO ON 3!

Here is how I play Sunset, I think that it is pretty accurate, and also I tabbed 
it bye ear but I think it is pretty good, it
is probably around 90% accurate or more. In between each three notes your slap the 
strings, listen to the song for timing! 
And big thanks to revhi109 for helping me figure out the solo!

Chords:
  G      E      F      C
|-3-|  |-3-|  |-3-|  |-3-|
|-3-|  |-3-|  |-3-|  |-3-|
|-0-|  |-0-|  |-2-|  |-0-|
|-0-|  |-2-|  |-0-|  |-2-|
|-2-|  |-2-|  |-0-|  |-3-|
|-3-|  |-0-|  |-2-|  |-x-|

Start off playing G and then it flows into the verse.

G
well here we are at the base of the sunset
                       E
here we are, here we are
                G
this I won't forget
G
as the night slowly creeps up our backside
                                          E
I'm so blessed that you're here with me tonight
                   G                        F
cause it feels so right (cause it feels so right)
G              E               G      F
how did I fall so in love with you
G              E               G      F
how did I fall so in love with you

G        F         E
baby I'm crazy for you
      C
and I always will be
G                F          E
I'm here in this moment for two
         C
so let's pack our bags and
G              F              E     C (hold out)
runaway, we'll runaway, we'll runaway

G
well here we are at the start of the sunrise
                       E
here we are, here we are
                  G
after a perfect night
G
take my hand as we walk towards the sunrise
                                          E
holding back all the words that we should say
                  
             G        F
but it's too perfect
G              E               G                  F
how did I fall so in love with you (how did I get so lucky)
G              E               G                  F
how did I fall so in love with you (how did I get so lucky)
G              E               G                      F        
how did I fall so in love with you (you gotta tell me how I got this lucky)
G              E
how did I fall so in love

G        F         E
baby I'm crazy for you
      C
and I always will be
G                F          E
I'm here in this moment for two
        C
so lets pack our bags and 
G              F              E     C (hold out)
runaway, we'll runaway, we'll runaway

Solo:
Guitar 1:
G, E, G, E, G, F (it is exactly the same as the verses).


Guitar 2 (no capo):
e|--------------------------------------------------------------------------|
B|--------------------------------------------------------------------------|
G|----5--3--0--3--7--5--3-----5--3--0--3--7--5--7----8--7--5--5--7----------|
D|--------------------------------------------------------------------8--5--|
A|--------------------------------------------------------------------------|
E|--------------------------------------------------------------------------|

e|--------------------------------------------------------------------------|
B|----------------------8--6------------------------------------------------|
G|------------------5-------------------------------------------------------|
D|--------5--7--8-----------------------------------------------------------|
A|---8----------------------------------------------------------------------|
E|--------------------------------------------------------------------------|

e|--------------------------------------------------------------------------|
B|--------------------------------------------------------------------------|
G|----5--3--0--3--7--5--3-----5--3--0--3--7--5--7---8--7--5--5--7--3--3/5--2|
D|--------------------------------------------------------------------------|
A|--------------------------------------------------------------------------|
E|--------------------------------------------------------------------------|


G              E               G              F
how did I fall so in love with you (how did I get so lucky)
G              E
how did I fall so in love

G        F         E
baby I'm crazy for you
      C
and I always will be
G                F          E
I'm here in this moment for two
         C
cause it feels so right 
     G         F         E
with you, with you, with you,
          G         F           E (hold out)
here with you, with you, with you 

END!  : )
Suggest correction
comments
print report bad tab
1 comment total.
0 reply
juliebays 42 Feb 08, 2010 11:19 PM

alright sorry i tried to correct it again before it went through but it was too late, the only correction is when it goes how did i fall so in love with you? the chords are G,E,F,E. enjoy! :)

guest
You may want to rate the tab now too:
select rating
Wanna post a correction for this tab? Suggest correction