Oops, an error
Loading. Please wait.

Under The Stars Tab

version 2
version 2

Whole song

3,229 views 1 this week
no commentswrite comment
1 2 3 4 5
1 last vote to show rating
add to favorites
launch autoscroll
font size
0
reset
how to read this tab
guitar tuner
Autoscroll
slow
fast
+/-
esc
set tempo
stop
Help us to improve Ultimate-Guitar.com Take our survey!
×
Difficulty
novice
you need a capo on the second fret for this song.
im writing the tap out as if there was no capo. exp. if i have 555555 it will actully be 
5th fret not the 7th. soom people tend to do it the other way.

pattern is easy to figuer out, i didnt write it out, but its simple

verse
e---7777-9999-5555-|
b---5555-5555-5555-|
g------------------|
d------------------|
a------------------|
E------------------|

Chorus
e----------------------------|
b-5-5-5--5-5-5--5-5-5-5-5-5--|
g-0-0-0--4-4-4--0-0-0-0-0-0--|
d-0-0-0--0-0-0--0-0-0-0-0-0--|
a-4-4-4---------5-5-5-5-5-5--|
E-5-5-5----------------------|

the i promise you part

e------------------------|
b-5-5-5-5-5--5-5-5-5-5-5-|
g-4-4-4-4-4--0-0-0-0-0-0-|
d-0-0-0-0-0--0-0-0-0-0-0-|
a------------5-5-5-5-5-5-|
E------------------------|

the brige/piano part.
e----------------------------------------------------|
b-5-5-5-5-5-5-5-5-5-5-5-5--5-5-5-5-5-5--5-5-5-5-5-5--|
g-0-0-0-0-0-0-0-0-0-0-0-0--4-4-4-4-4-4--0-0-0-0-0-0--|
d-0-0-0-0-0-0-0-0-0-0-0-0--0-0-0-0-0-0--0-0-0-0-0-0--|
a-4-4-4-4-4-4-4-4-4-4-4-4---------------5-5-5-5-5-5--|
E-5-5-5-5-5-5-5-5-5-5-5-5----------------------------|

the outro is just the verse


have fun. easy song
Suggest correction
Give kudos to tab author, rate the tab!
1 2 3 4 5
comments
print report bad tab
guest
You may want to rate the tab now too:
select rating
Wanna post a correction for this tab? Suggest correction