Oops, an error
Loading. Please wait.

Fly Love chords

version 5
version 5

Whole song

Interactive

1,144 views 36 this week
no commentswrite comment
1 2 3 4 5
3 more votes to show rating
add to favorites
×
Save as Personal and add changes to this tab that will be seen only by you. Learn more ›
×
You can save this tab as Personal to edit and correct it or add notes. All changes will be seen only by you. Learn more »
launch autoscroll
font size
0
reset
transpose
0
reset
simplify chords
display chords
guitar tuner
edit
Autoscroll
slow
fast
+/-
esc
set tempo
stop
Author
Strumming
There is no strumming pattern for this song yet. and get +5 IQ
---------------------------FLY LOVE - JAIME FOXX---------------------------------

Intro:
*whistle*

e|-------------------------------------------------------------------------------|
B|---------0--3------------------------------------------------------------------|
G|------0--------3---------------------------------------------------------------|
D|---2---------------------------------------------------------------------------|
A|-------------------------------------------------------------------------------|
E|-------------------------------------------------------------------------------|

e|--0-0-0-0-0-0--x--0-0-0-0--3-2-0-0-0-0-X-0-------------------------------------|
B|--0-0-0-0-0-0--x--0-0-0-0--0-0-0-3-0-2-X-2-------------------------------------|
G|--2-2-2-2-2-2--x--1-1-1-1--0-0-0-0-0-0-X-0-------------------------------------|
D|--2-2-2-2-2-2--x--0-0-0-0------------------------------------------------------|
A|--2-2-2-2-2-2--x--0-0-0-0------------------------------------------------------|
E|--2-2-2-2-2-2--x--1-1-1-1------------------------------------------------------| 


D                       Dmaj7                   
Wasn´t really thinking, wasn´t looking, wasn´t searching
         Em   Gm6
for an answer
       F#m7        Fm7
in the moonlight
      Em              A7
when I saw your face


D                      Dmaj7          
Saw you looking at me, saw you peeking out from under
 Em        Gm6
moon beams
            F#m7       Fm7
through the palm trees
        Em            A7
swaying in the breeze


  G                         Em               Gm6 
I know I´m feeling so much more than ever before
    G                        Em         Gm6                
and so I´m giving more to you than I though I could do


D                           Dmaj7
Don´t know how it happened, don´t know why, but you don´t
              Em     Gm6
really need a reason
         F#m7       Fm7
when the stars shine
      Em           A7
just to fall in love


D                        Dmaj7
Made to love each other, made to be together 
       Em       Gm6
for a life time
        F#m7      Fm7
in the sunshine
       Em         A7
flying in the sky


  G                         Em               Gm6 
I know I´m feeling so much more than ever before
    G                        Em         Gm6                
and so I´m giving more to you than I though I could do


Dmaj7 - Em - Gm6 - F#m7 - Fm7 - Em - A7


Dmaj7       Em               Gm6   
   Now i know love is real
           F#m7         Fm7
so when sky high, as the angels try
    Em            A7      
letting you and I 
     Gm6    Dmaj7
fly love

            
            
Suggest correction
Creating personal tab
Creating personal tab
You can edit any tab online and save it as your Personal.

You can edit, replace or remove any tab part or add personal notes – all changes will be seen only by you.

Personal tabs can be accessed anytime from any device, even offline.
Learn more »
Give kudos to tab author, rate the tab!
1 2 3 4 5
comments
print report bad tab
guest
You may want to rate the tab now too:
select rating
Wanna post a correction for this tab? Suggest correction