Oops, an error
Loading. Please wait.

Ready To Fly Tab

911 views 1 this week
no commentswrite comment
1 2 3 4 5
excellent!
x 2
add to favorites
launch autoscroll
font size
0
reset
how to read this tab
guitar tuner
Tab Pro tools
  • play this tab
  • loop segment
  • change instrument
  • show fretboard
  • metronome
Autoscroll
slow
fast
+/-
esc
set tempo
stop
Contributor
Difficulty
Tabbers playing skills
novice
intermediate ++
-----------------------------------------------------------------------------
                           READY TO FLY(PRELUDE)               JAMIE GRACE
-----------------------------------------------------------------------------

Tabbed by:hurricaneherman
Acoustic Guitar:Standard Tuning


~INTRO~

e|0-------0-0-----0-------0-0-----0---0---0-0-----0---0---0-0---0-|
B|1-------1-1-----1-------1-1-----1---1---1-1-----1---1---1-1---1-|
G|0-------0-0-----0-------0-0-----2---2---2-2-----2---2---2-2---2-|
D|x-------x-x-----x-------x-x-----2---2---2-2-----2---2---2-2---2-|
A|3-------3-3-----2-------2-2-----0---0---0-0-----0---0---0-0---0-|
E|----------------------------------------------------------------|

e|1---1---1-1---1-3---3---3-3---3-0---0---0-0---0-----------------|
B|1---1---1-1---1-3---3---3-3---3-1---1---1-1---1-----------------|
G|2---2---2-2---2-4---4---4-4---4-0---0---0-0---0-----------------|
D|3---3---3-3---3-5---5---5-5---5-2---2---2-2---2-----------------|
A|3---3---3-3---3-5---5---5-5---5-3---3---3-3---3-----------2-----|
E|1---1---1-1---1-3---3---3-3---3-----------------3----5----------|


~CHORUS~

e|0-------0-0-----0-------0-0-----0---0---0-0-----0---0---0-0---0-|
B|1-------1-1-----1-------1-1-----1---1---1-1-----1---1---1-1---1-|
G|0-------0-0-----0-------0-0-----2---2---2-2-----2---2---2-2---2-|
D|x-------x-x-----x-------x-x-----2---2---2-2-----2---2---2-2---2-|
A|3-------3-3-----2-------2-2-----0---0---0-0-----0---0---0-0---0-|
E|----------------------------------------------------------------|
      There's a feather in my hair and a wing around my neck

e|1---1---1-1---1-3---3---3-3---3-0---0---0-0---0-----------------|
B|1---1---1-1---1-3---3---3-3---3-1---1---1-1---1-----------------|
G|2---2---2-2---2-4---4---4-4---4-0---0---0-0---0-----------------|
D|3---3---3-3---3-5---5---5-5---5-2---2---2-2---2-----------------|
A|3---3---3-3---3-5---5---5-5---5-3---3---3-3---3-----------2-----|
E|1---1---1-1---1-3---3---3-3---3-----------------3----5----------|
                    I'm ready to fly away

e|0-------0-0-----0-------0-0-----0---0---0-0-----0---0---0-0---0-|
B|1-------1-1-----1-------1-1-----1---1---1-1-----1---1---1-1---1-|
G|0-------0-0-----0-------0-0-----2---2---2-2-----2---2---2-2---2-|
D|x-------x-x-----x-------x-x-----2---2---2-2-----2---2---2-2---2-|
A|3-------3-3-----2-------2-2-----0---0---0-0-----0---0---0-0---0-|
E|----------------------------------------------------------------|
      There's a feather in my hair and a wing around my neck

e|1---1---1-1---1-3---3---3-3---3-0---0---0-0---0-0---0---0-0---0-|
B|1---1---1-1---1-3---3---3-3---3-1---1---1-1---1-1---1---1-1---1-|
G|2---2---2-2---2-4---4---4-4---4-0---0---0-0---0-0---0---0-0---0-|
D|3---3---3-3---3-5---5---5-5---5-2---2---2-2---2-2---2---2-2---2-|
A|3---3---3-3---3-5---5---5-5---5-3---3---3-3---3-3---3---3-3---3-|
E|1---1---1-1---1-3---3---3-3---3---------------------------------|
                    I'm ready to fly away

~BRIDGE~

e|0---0---0-0---0-0---0---0-0---0-3---3---3-3---3-3---3---3-3---3-|
B|1---1---1-1---1-1---1---1-1---1-0---0---0-0---0-0---0---0-0---0-|
G|2---2---2-2---2-2---2---2-2---2-0---0---0-0---0-0---0---0-0---0-|
D|2---2---2-2---2-2---2---2-2---2-0---0---0-0---0-0---0---0-0---0-|
A|0---0---0-0---0-0---0---0-0---0-2---2---2-2---2-2---2---2-2---2-|
E|--------------------------------3---3---3-3---3-3---3---3-3---3-|
          And I've got the wishes from all of my friends 

e|0---0---0-0---0-3---3---3-3---3-0---0---0-0---0-0---0---0-0---0-|
B|1---1---1-1---1-0---0---0-0---0-1---1---1-1---1-1---1---1-1---1-|
G|0---0---0-0---0-0---0---0-0---0-2---2---2-2---2-2---2---2-2---2-|
D|2---2---2-2---2-0---0---0-0---0-2---2---2-2---2-2---2---2-2---2-|
A|3---3---3-3---3-2---2---2-2---2-0---0---0-0---0-0---0---0-0---0-|
E|----------------3---3---3-3---3---------------------------------|
             Hugs and kisses from my mom and my dad


~OUTRO~

e|0-------0-0-----0-------0-0-----0---0---0-0-----0---0---0-0---0-|
B|1-------1-1-----1-------1-1-----1---1---1-1-----1---1---1-1---1-|
G|0-------0-0-----0-------0-0-----2---2---2-2-----2---2---2-2---2-|
D|x-------x-x-----x-------x-x-----2---2---2-2-----2---2---2-2---2-|
A|3-------3-3-----2-------2-2-----0---0---0-0-----0---0---0-0---0-|
E|----------------------------------------------------------------|
      There's a feather in my hair and a wing around my neck

e|1---1---1-1---1-3---3---3-3---3-0---0---0-0---0-----------------|0---|
B|1---1---1-1---1-3---3---3-3---3-1---1---1-1---1-----------------|1---|
G|2---2---2-2---2-4---4---4-4---4-0---0---0-0---0-----------------|0---|
D|3---3---3-3---3-5---5---5-5---5-2---2---2-2---2-----------------|2---|
A|3---3---3-3---3-5---5---5-5---5-3---3---3-3---3-----------2-----|3---|
E|1---1---1-1---1-3---3---3-3---3-----------------3----5----------|----|

=============================================================================
This song is really fun to play on the guitar alone, hope you enjoy.

Peace, Love, I'm out.
comments
We did not receive enough feedback on this tab! Please rate:
print report bad tab
1 2 3 4 5
I want to post or [tab]
guest
You may want to rate the tab now too:
select rating
Please do not post tabs as comments. Select "correction" instead!