Oops, an error
Loading. Please wait.

In Our Own Worlds tab

832 views 21 this week
3 commentsread comments
1 2 3 4 5
x 4
add to favorites
×
Save as Personal and add changes to this tab that will be seen only by you. Learn more ›
×
You can save this tab as Personal to edit and correct it or add notes. All changes will be seen only by you. Learn more »
launch autoscroll
font size
0
reset
how to read this tab
guitar tuner
edit
Autoscroll
slow
fast
+/-
esc
set tempo
stop
Author
Difficulty
About this tab version
Tabbed this out by ear and it should be right, but comment any corrections. And the bridge chords were the only thing that I wasn't sure about so let me know if I need to change those. Enjoy. Was this info helpful? Yes No
[Intro]

e|-----------3---------------------------------3-------3-------3--------|
B|-(1)---1-------1-------3---3h5p3-0-(1)---1-------1-------1-------1----|
G|-----0---0---0---0---0---0-------------2---2---2---2---2---2---2---2--| (2x)
D|----------------------------------------------------------------------|
A|--3---------------------------------0---------------------------------|
E|-------------------3--------------------------------------------------|

[Verse]

We've weathered the silence, weathered the storms
e|-----------3---------------3------------------3-------3-------3--------|
B|-(1)---1-------1-------3-------3----(1)---1-------1-------1-------1----|
G|-----0---0---0---0---0---0---0---0------2---2---2---2---2---2---2---2--|
D|-----------------------------------------------------------------------|
A|--3----------------------------------0---------------------------------|
E|-------------------3---------------------------------------------------|

Weathered the violence, in these symmetrical forms
We've broken the fear left, and the fear left within
With every last breath, I feel you on my skin
e|-----------0---------------3------------------3-------3-------3--------|
B|-(1)---1-------1-------3-------3----(1)---1-------1-------1-------1----|
G|-----0---0---0---0---0---0---0---0------2---2---2---2---2---2---2---2--| (3x)
D|-----------------------------------------------------------------------|
A|--3----------------------------------0---------------------------------|
E|-------------------3---------------------------------------------------|

[Chorus]

We can be perfect, we can be stars
e|-----------3---------------3------------------3-------3-------3--------|
B|-(1)---1-------1-------3-------3----(1)---1-------1-------1-------1----|
G|-----0---0---0---0---0---0---0---0------2---2---2---2---2---2---2---2--|
D|-----------------------------------------------------------------------|
A|--3----------------------------------0---------------------------------|
E|-------------------3---------------------------------------------------|

We can remember, everything that we are
e|-----------0---------------3-----------------3----------|
B|-(1)---1-------1-------3-------3---(1)---1-------1------|
G|-----0---0---0---0---0---0---0---0-----2---2---2---2----|
D|--------------------------------------------------------|
A|--3---------------------------------0----------------0--|
E|-------------------3------------------------------------|

[Verse]

Take all the history, every battle we've won
Put our faith in the mystery, in the warmth of the sun
e|-----------3---------------3------------------3-------3-------3--------|
B|-(1)---1-------1-------3-------3----(1)---1-------1-------1-------1----|
G|-----0---0---0---0---0---0---0---0------2---2---2---2---2---2---2---2--| (2x)
D|-----------------------------------------------------------------------|
A|--3----------------------------------0---------------------------------|
E|-------------------3---------------------------------------------------|

We'll take every heart burnt, every beautiful scar
And every lesson we've not learned, just to be who we are
e|-----------0---------------3------------------3-------3-------3--------|
B|-(1)---1-------1-------3-------3----(1)---1-------1-------1-------1----|
G|-----0---0---0---0---0---0---0---0------2---2---2---2---2---2---2---2--| (2x)
D|-----------------------------------------------------------------------|
A|--3----------------------------------0---------------------------------|
E|-------------------3---------------------------------------------------|

[Chorus]

We can be perfect, we can be stars
We can remember everything who we are 
e|-----------3---------------3------------------3-------3-------3--------|
B|-(1)---1-------1-------3-------3----(1)---1-------1-------1-------1----|
G|-----0---0---0---0---0---0---0---0------2---2---2---2---2---2---2---2--| (2x)
D|-----------------------------------------------------------------------|
A|--3----------------------------------0---------------------------------|
E|-------------------3---------------------------------------------------|

We can be perfect, shattered and broken
e|-----------0---------------3------------------3-------3-------3--------|
B|-(1)---1-------1-------3-------3----(1)---1-------1-------1-------1----|
G|-----0---0---0---0---0---0---0---0------2---2---2---2---2---2---2---2--|
D|-----------------------------------------------------------------------|
A|--3----------------------------------0---------------------------------|
E|-------------------3---------------------------------------------------|

We can be perfect, we can be perfect
e|-----------3---------------3------------------3-------3-------3--------|
B|-(1)---1-------1-------3-------3----(1)---1-------1-------1-------1----|
G|-----0---0---0---0---0---0---0---0------2---2---2---2---2---2---2---2--|
D|-----------------------------------------------------------------------|
A|--3----------------------------------0---------------------------------|
E|-------------------3---------------------------------------------------|

[Bridge]

      C       G         Am              Am  
Cause you and I live in our own worlds
e|----3-------3---------5---------------(5)--|
B|----3-------3---------5---------------(5)--|
G|----5-------4---------5----------------5---|
D|----5-------5---------7----------------7---|
A|----3-------5---------7----------------7---|
E|----3-------3---------5----------------5---|

      C       G         Am
Cause you and I live in our own worlds
e|----3-------3---------5-------------------|
B|----3-------3---------5-------------------|
G|----5-------4---------5-------------------| (pause)
D|----5-------5---------7-------------------|
A|----3-------5---------7-------------------|
E|----3-------3---------5-------------------|

[Outro]

e|------------|
B|--3h5p3-0-1-|
G|------------|
D|------------|
A|------------|
E|------------|

 Oh oh oh
 Oh oh oh
 Oh oh oh
e|-----------3---------------------------------3-------3-------3--------|
B|-(1)---1-------1-------3---3h5p3-0-(1)---1-------1-------1-------1----|
G|-----0---0---0---0---0---0-------------2---2---2---2---2---2---2---2--| (2x)
D|----------------------------------------------------------------------|
A|--3---------------------------------0---------------------------------|
E|-------------------3--------------------------------------------------|

I know you're perfect, shattered and broken
I know you're perfect, just you be who you are
I know you're perfect, just you be who you are
e|-----------0---------------3------------------3-------3-------3--------|
B|-(1)---1-------1-------3-------3----(1)---1-------1-------1-------1----|
G|-----0---0---0---0---0---0---0---0------2---2---2---2---2---2---2---2--| (3x)
D|-----------------------------------------------------------------------|
A|--3----------------------------------0---------------------------------|
E|-------------------3---------------------------------------------------|

************************************

| (n) Ghost note
| h   Hammer-on
| p   Pull-off

************************************

            
            
Suggest correction
Creating personal tab
Creating personal tab
You can edit any tab online and save it as your Personal.

You can edit, replace or remove any tab part or add personal notes – all changes will be seen only by you.

Personal tabs can be accessed anytime from any device, even offline.
Learn more »
comments
print report bad tab
3 comments total.
0 reply
eugen_cosic 10 Feb 01, 2017 06:31 AM, edited at 11:32 am

I suggest if you tune your 6th string down to D, for me is a lot easier, and in bridge you don't need to strum with the 6th string, otherwise great job ! I love your tab.

0 reply
alisonwright 10 Aug 24, 2017 10:42 PM

This is beautiful, thanks

guest
You may want to rate the tab now too:
select rating
Wanna post a correction for this tab? Suggest correction