Oops, an error
Loading. Please wait.

Wasnt Expecting That Bass Tab

16 views 3 this week
no commentswrite comment
1 2 3 4 5
3 more votes to show rating
add to favorites
launch autoscroll
font size
0
reset
guitar tuner
Autoscroll
slow
fast
+/-
esc
set tempo
stop
Help us to improve Ultimate-Guitar.com Take our survey!
×
Author
Difficulty
novice
About this tab version
Studio Version Bass Tab. Listen to the song for timing, emphasis and exact number of notes played.... Was this info helpful? Yes No
Wasnt Expecting That - Jamie Lawson 
Tabbed by: Phil 
E-mail: phil.larwy@gmail.com
Tuning:Standard

[INTRO/VERSE] 0:00
G|-------------------------------------|
D|-------------------------------------|   x2
A|-9-----6--4--------9-----------------|
E|----6--------7--9-----9-9h11-9-------|

0:30s Slight Variation 
G|-------------------------------------|
D|-------------------------------------|  
A|-9-----6--4--------9-----------------|
E|----6--------7--9-----9--999---------|

G|-------------------------------------|
D|-------------------------------------|  
A|-9-----6--4--------9-----------------|
E|----6--------7--9-----9-9h11-9-------|

G|------------------------------------|
D|------------------------------------|
A|-9-----6--4--------9-9-9-9----------|
E|----6--------7--9-------------------|

[Chorus] 0:52s
G|----------------------------------------------------------------------------------------|
D|----------------------------------------------------------------------------------------|
A|--11-11-11-11--11-11-11-11-13-13-13-13-13-13-13-13-14-14-14-14-14-14-14-14--------------|
E|----------------------------------------------------------------------------------------|

G|----------------------------------------------------------------------------------------|
D|----------------------------------------------------------------------------------------|
A|----------------------------------------------------------------------------------------|
E|14-14-14-14-14-14-14-14-13-12-11-11-11-11-11-11-11-11-6-6-6-6-6-6-6-7-7-7-7-7-7-7-7-----|

G|----------------------------------------------------------------------------------------|
D|----------------------------------------------------------------------------------------|
A|----------------------------------------------------------------------------------------|
E|9-9-9-9-9-9-9-9-/-21-21-21-21-21-21-21-21-\---------------------------------------------|

[Verse] 1:17s
Listen to the song for timing and emphasis
G|-------------------------------------|
D|-------------------------------------|  
A|-9-----6--4--------9-----------------|
E|----6--------7--9-----9-9h11-9-------|

G|------------------------------------|
D|------------------------------------|
A|-9-----6--4--------9-9-9-9----------|
E|----6--------7--9-------------------|

1:38s
G|----------------------------------------------------------------------------------------|
D|----------------------------------------------------------------------------------------|
A|--11-11-11-11--11-11-11-11-13-13-13-13-13-13-13-13-14-14-14-14-14-14-14-14--------------|
E|----------------------------------------------------------------------------------------|

G|----------------------------------------------------------------------------------------|
D|----------------------------------------------------------------------------------------|
A|----------------------------------------------------------------------------------------|
E|14-14-14-14-14-14-14-14-13-12-11-11-11-11-11-11-11-11-6-6-6-6-6-6-6-7-7-7-7-7-7-7-7-----|

G|----------------------------------------------------------------------------------------|
D|----------------------------------------------------------------------------------------|
A|----------------------------------------------------------------------------------------|
E|9-9-9-9-9-9-9-9-/-21-21-21-21-21-21-21-21-\---------------------------------------------|

[Verse] 2:01s
G|-------------------------------------|
D|-------------------------------------|   
A|-9-----6--4--------9--9-10-----------|
E|----6--------7--9--------------------|

[INTERLUDE] 2:11s
G|----------------------------------------------------------------------------------------|
D|----------------------------------------------------------------------------------------|
A|---------------------------------------------------------9-9-9-9-9-9-9-9-10-------------|
E|9-9-9-9-9-9-9-9-11-11-11-11-11-11-11-11-7-7-7-7-7-7-7-7---------------------------------|

G|----------------------------------------------------------------------------------------------------|
D|----------------------------------------------------------------------------------------------------|
A|---------------------------------13-----------------------------------------------------------------|
E|9-9-9-9-9-9-9-9-11-11-11-11-11h13--13-11/7-7-7-7-7-7-7-7-9-9-9-9-9-9-9-9-/21-21-21-21-21-21-21-21-\-|

[Outro]
G|-------------------------------------|
D|-------------------------------------|  x4
A|-9-----6--4--------9-----------------|
E|----6--------7--9-----9-9h11-9-------|

Let the last note ring :)

************************************

| h  Hammer-on
| /  Slide up
| \  Slide down

************************************
Suggest correction
Give kudos to tab author, rate the tab!
1 2 3 4 5
comments
print report bad tab
guest
You may want to rate the tab now too:
select rating
Wanna post a correction for this tab? Suggest correction