Oops, an error
Loading. Please wait.

Follow Me Tab

version 1
version 1

Whole song

Interactive

2,430 views 1 this week
1 commentread comment
1 2 3 4 5
please rate
add to favorites
launch autoscroll
font size
0
reset
how to read this tab
guitar tuner
Autoscroll
slow
fast
+/-
esc
set tempo
stop
Help us to improve Ultimate-Guitar.com Take our survey!
×
Difficulty
novice
THIS IS THE WORDS TAB TO THE SONG.
PLAY IT AND SING IT , AND THEN YOU WILL SEE
:-)



Ooh                
e-----------------|
b--5--3-----------|
g-----------------|
d-----------------|
a-----------------|
e-----------------|

I know you see me standing here
|--------------------------------|
|-1--3--1---3--3--1--1-----------|
|-----------------------2--------|
|--------------------------------|
|--------------------------------|
|--------------------------------|

 Do I look good my dear
|--------------------------------|
|-1--3--1---3--3--1--1-----------|
|-----------------------2--------|
|--------------------------------|
|--------------------------------|
|--------------------------------|

Do I look good today
|--------------------------------|
|-1-1-1-1--3---6\5---------------|
|--------------------------------|
|--------------------------------|
|--------------------------------|
|--------------------------------|

Ooh ooh oooh
|--------------------------------|
|--5--5--6---5---1-1--(1-1)------|
|--------------------------------|
|--------------------------------|
|--------------------------------|
|--------------------------------|

I'm just another kind of girl
|--------------------------------|
|-1--3--1--3--3--1--1------------|
|---------------------2---(-2-2-)|
|--------------------------------|
|--------------------------------|
|--------------------------------|

And you wanna see my world
|--------------------------------|
|-1--3--1---3--3--1--1-----------|
|-----------------------2-(-2-2-)|
|--------------------------------|
|--------------------------------|
|--------------------------------|

So come another way
|--------------------------------|
|-1-1-1-1--3---6-5---------------|
|--------------------------------|
|--------------------------------|
|--------------------------------|
|--------------------------------|

Yeah Yeah
|--------------------------------|
|--5--3--3---1-------------------|
|--------------------------------|
|--------------------------------|
|--------------------------------|
|--------------------------------|


If you wanna play
|--------------------------------|
|---/8-8--10-8--3----------------|
|--------------------------------|
|--------------------------------|
|--------------------------------|
|--------------------------------|

Come and play today
|--------------------------------|
|---/8-8--10-8--3----------------|
|--------------------------------|
|--------------------------------|
|--------------------------------|
|--------------------------------|

Let's Just Get Away ...Yeah
|--------------------------------|
|--3--1--3--5--6--5--------------|
|--------------------------------|
|--------------------------------|
|--------------------------------|
|--------------------------------|

I will make you see
|--------------------------------|
|--------------------------------|
|--4-4--5--2--2--0---------------|
|--------------------------------|
|--------------------------------|
|--------------------------------|

All of the things that you've gotta be
|--------------------------------|
|--------------------------------|
|--9--10--9--7--5--4--5--2-2--0--|
|--------------------------------|
|--------------------------------|
|--------------------------------|

Believe in yourself and Follow Me
|--------------------------------|
|--------------------------------|
|--0-9-10--9--7--5--4--5--2-2--0-|
|--------------------------------|
|--------------------------------|
|--------------------------------|

Yeah Yeah Yeah
|--------------------------------|
|--------------------------------|
|--------------------------------|
|-10--7-5-7-5/10-----------------|
|--------------------------------|
|--------------------------------|

Yeah Yeah You
|--------------------------------|
|--5--5--6---5-------(-1-1-1-1-)-|
|--------------------------------|
|--------------------------------|
|--------------------------------|
|--------------------------------|

Just gotta let it loose
|--------------------------------|
|--1--3--1---3--1--10-8-5-8--10--|
|--------------------------------|
|--------------------------------|
|--------------------------------|
|--------------------------------|

Do what you choose to do
|--------------------------------|
|-1-3-1-3-1-3-1-1----------------|
|-----------------2--(2-2-)------|
|--------------------------------|
|--------------------------------|
|--------------------------------|

Don't Walk Away
|--------------------------------|
|-1-1-1-1--3---6-5---------------|
|--------------------------------|
|--------------------------------|
|--------------------------------|
|--------------------------------|

Yeah Yeah
|--------------------------------|
|--5--3--3---1-------------------|
|--------------------------------|
|--------------------------------|
|--------------------------------|
|--------------------------------|

If you wanna play
|--------------------------------|
|---/8-8--10-8--3----------------|
|--------------------------------|
|--------------------------------|
|--------------------------------|
|--------------------------------|

Come and play today
|--------------------------------|
|---/8-8--10-8--3----------------|
|--------------------------------|
|--------------------------------|
|--------------------------------|
|--------------------------------|

Let's Just Get Away ...Yeah
|--------------------------------|
|--3--1--3--5--6--5--------------|
|--------------------------------|
|--------------------------------|
|--------------------------------|
|--------------------------------|

I will make you see
|--------------------------------|
|--------------------------------|
|--4-4--5--2--2--0---------------|
|--------------------------------|
|--------------------------------|
|--------------------------------|

All of the things that you've gotta be
|--------------------------------|
|--------------------------------|
|--9--10--9--7--5--4--5--2-2--0--|
|--------------------------------|
|--------------------------------|
|--------------------------------|

Believe in yourself and Follow Me
|--------------------------------|
|--------------------------------|
|--0-9-10--9--7--5--4--5--2-2--0-|
|--------------------------------|
|--------------------------------|
|--------------------------------|

I will make you see
|--------------------------------|
|--------------------------------|
|--4-4--5--2--2--0---------------|
|--------------------------------|
|--------------------------------|
|--------------------------------|

All of the things that you've gotta be
|--------------------------------|
|--------------------------------|
|--9--10--9--7--5--4--5--2-2--0--|
|--------------------------------|
|--------------------------------|
|--------------------------------|

Believe in yourself and Follow Me
|--------------------------------|
|--------------------------------|
|--0-9-10--9--7--5--4--5--2-2--0-|
|--------------------------------|
|--------------------------------|
|--------------------------------|

Yeah Yeah Yeah
|--------------------------------|
|--------------------------------|
|--------------------------------|
|-10--7-5-7-5/10-----------------|
|--------------------------------|
|--------------------------------|

ENJOY
יוצר על ידי בני ינקו. ישראל.
Suggest correction
Give kudos to tab author, rate the tab!
1 2 3 4 5
comments
print report bad tab
1 comment total.
0 reply
jenny101 10 wrote on October 28 2006, 04:35 pm

OMG- this tab's pretty good!!! good job!

guest
You may want to rate the tab now too:
select rating
Please do not post tabs as comments. Select "correction" instead!