Oops, an error
Loading. Please wait.

Lets Pretend tab

112 views 1 this week
no commentswrite comment
1 2 3 4 5
3 more votes to show rating
add to favorites
×
Save as Personal and add changes to this tab that will be seen only by you. Learn more ›
×
You can save this tab as Personal to edit and correct it or add notes. All changes will be seen only by you. Learn more »
launch autoscroll
font size
0
reset
how to read this tab
guitar tuner
edit
Autoscroll
slow
fast
+/-
esc
set tempo
stop
Capo on 4th fret


[Intro]

e|------------------------|
B|------------------------|
G|--0--0--0--0--0--0--0--0|
D|-0--0--0--0--0--0--0--0-|
A|------3--3--------3--3--|
E|0--3--------0--3--------| 


[Verse]

e|------------------------|
B|------------------------|
G|--0--0--0--0--0--0--0--0|
D|-0--0--0--0--0--0--0--0-|
A|------3--3--------3--3--|
E|0--3--------0--3--------|  
I see, your blue eyes, I see
The fear, inside when you, kiss me
It's clear, we lied, it's clear
Most years, of our lives but I, wait here


[Pre-Chorus]

e|------------------------------------------------|
B|------------------------------------------------|
G|--0--0--0--0--0--0--0--0--0--0--0--0--0--0--0--0|
D|-0--0--0--0--0--0--0--0--0--0--0--0--0--0--0--0-|
A|3--2--0-----------------3--2--0-----3--3--3--3--|
E|---------2--3--3--3--3-----------2--------------|
Take your hands from me
You're not mine to keep, anymore


[Chorus]

e|------------------------------------------------|
B|------------------------------------------------|
G|--0--0--0--0--0--0--0--0--0--0--0--0--0--0--0--0|
D|-0--0--0--0--0--0--0--0--2--2--2--2--0--0--0--0-|
A|------------3--3--3--3--2--2--2--2--3--3--3--3--|
E|3--3--3--3--------------------------------------|
Please change your mind
Come back this time
Just say we're forever
You'll hold me and
We'll be like we were
Back, then

e|------------------------|
B|------------------------|
G|--0--0--0--0--0--0--0--0|
D|-0--0--0--0--0--0--0--0-|
A|------3--3--------3--3--|
E|0--3--------0--3--------|
Let's pretend.


[Verse]

e|------------------------|
B|------------------------|
G|--0--0--0--0--0--0--0--0|
D|-0--0--0--0--0--0--0--0-|
A|------3--3--------3--3--|
E|0--3--------0--3--------|  
I see, why we, can't be
Too much, to hide and it, kills me
And I know, your mind isn't, on me
But I'll dream, in white and I, can't breathe


[Pre-Chorus]

e|------------------------------------------------|
B|------------------------------------------------|
G|--0--0--0--0--0--0--0--0--0--0--0--0--0--0--0--0|
D|-0--0--0--0--0--0--0--0--0--0--0--0--0--0--0--0-|
A|3--2--0-----------------3--2--0-----3--3--3--3--|
E|---------2--3--3--3--3-----------2--------------|
Leave your eyes on me
Though I'm not yours to see, anymore


[Chorus]

e|------------------------------------------------|
B|------------------------------------------------|
G|--0--0--0--0--0--0--0--0--0--0--0--0--0--0--0--0|
D|-0--0--0--0--0--0--0--0--2--2--2--2--0--0--0--0-|
A|------------3--3--3--3--2--2--2--2--3--3--3--3--|
E|3--3--3--3--------------------------------------|
Please change your mind
Come back this time
Just say we're forever
You'll hold me and
We'll be like we were
Back, then

e|------------------------|
B|------------------------|
G|--0--0--0--0--0--0--0--0|
D|-0--0--0--0--0--0--0--0-|
A|------3--3--------3--3--|
E|0--3--------0--3--------|
Let's pretend
Let's pretend


[Verse]

e|------------------------|
B|------------------------|
G|--0--0--0--0--0--0--0--0|
D|-0--0--0--0--0--0--0--0-|
A|------3--3--------3--3--|
E|0--3--------0--3--------|  
And I'm so sorry
I know I caused this
And I'm so sorry
And I didn't want this


[Pre-Chorus]

e|------------------------------------------------|
B|------------------------------------------------|
G|--0--0--0--0--0--0--0--0--0--0--0--0--0--0--0--0|
D|-0--0--0--0--0--0--0--0--0--0--0--0--0--0--0--0-|
A|3--2--0-----------------3--2--0-----3--3--3--3--|
E|---------2--3--3--3--3-----------2--------------|
But leave your eyes on me
Though I'm not yours to see, anymore


[Chorus]

e|------------------------------------------------|
B|------------------------------------------------|
G|--0--0--0--0--0--0--0--0--0--0--0--0--0--0--0--0|
D|-0--0--0--0--0--0--0--0--2--2--2--2--0--0--0--0-|
A|------------3--3--3--3--2--2--2--2--3--3--3--3--|
E|3--3--3--3--------------------------------------|
Please change your mind
Come back this time
Just say we're forever
You'll hold me and
We'll be like we were
Back, then

e|------------------------|
B|------------------------|
G|--0--0--0--0--0--0--0--0|
D|-0--0--0--0--0--0--0--0-|
A|------3--3--------3--3--|
E|0--3--------0--3--------|
Let's pretend
Let's pretend
Let's pretend
Let's pretend


[Outro]

e|-------|
B|-------|
G|--0--0-|
D|-0--0--|
A|------3|
E|0--3---|

            
            
Suggest correction
Creating personal tab
Creating personal tab
You can edit any tab online and save it as your Personal.

You can edit, replace or remove any tab part or add personal notes – all changes will be seen only by you.

Personal tabs can be accessed anytime from any device, even offline.
Learn more »
Give kudos to tab author, rate the tab!
1 2 3 4 5
comments
print report bad tab
guest
You may want to rate the tab now too:
select rating
Wanna post a correction for this tab? Suggest correction