Oops, an error
Loading. Please wait.

Lead Me Home Chords

version 1
version 1

Whole song

Interactive

39,018 views 87 this week
1 commentread comment
1 2 3 4 5
x 20
add to favorites
launch autoscroll
font size
0
reset
transpose
0
reset
display chords
guitar tuner
Autoscroll
slow
fast
+/-
esc
set tempo
stop
Help us to improve Ultimate-Guitar.com Take our survey!
×
Difficulty
Capo
novice
2nd fret
-----------------------------------------------------------------------------
-----"Lead Me Home" by Jamie N. Commons
-----------------------------------------------------------------------------

This song is played in capo 2, standard tuning. I use a basic picking pattern, and 
I'll write up the tab for it soon.


[Intro]

Play the low E string open for one measure
Em for 7 measures


[Verse 1]

Em
Oh lord live inside me, lead me on my way
Em
Oh lord live inside me, lead me on my way
        Em         Am
Lead me home
        Em
Lead me home


[Chorus]

Em
Oh lord in the darkness, lead me on my way
Em
Oh lord in the darkness, lead me on my way
        Em        Am
Lead me home
        Em
Lead me home


[Interlude]

Em                 Am
Hmmmmm
Em                 Am
Hmmmmm


[Chorus]

Em
Oh lord heaven's waiting, open up your door
Em
Oh lord heaven's waiting, open up your door
        Em         Am
Lead me home
        Em
Lead me home
        Em         Am
Lead me home
        Em
Lead me home
        Em         Am
Lead me home
        Em
Lead me home
Suggest correction
comments
print report bad tab
1 comment total.
+8 reply
camocf123 10 Mar 10, 2013 11:21 PM

Just watched it live. Capo on the 4th fret. It looked like various extensions of D. basically D and G though. this is sort of the intro, not exact at all.


e|-------------------------------------------------------------
b|---------3-----3--------------3-----3------------------------
g|-----0h2---0h2----2h3-----0h2---0h2----2h3p2-----------------
d|--0--------------------0---------------------3---------------
a|--0----------------------------------------------------------
E|-------------------------------------------------------------

guest
You may want to rate the tab now too:
select rating
Wanna post a correction for this tab? Suggest correction