Oops, an error
Loading. Please wait.

Lead Me Home Tab

version 2
version 2

Whole song

Interactive

40,467 views 291 this week
2 commentsread comments
1 2 3 4 5
accurate
x 13
add to favorites
launch autoscroll
font size
0
reset
how to read this tab
guitar tuner
Tab Pro tools
  • play this tab
  • loop segment
  • change instrument
  • show fretboard
  • metronome
Autoscroll
slow
fast
+/-
esc
set tempo
stop
Contributor
Difficulty
intermediate
I learned this completely by ear (other than
seeing a video of him playing where I saw
the capo on 4th fret).So,please be kind if you
leave a comment! :) Hope it helps some!


Legend:

h = Hammer On 
p = Pull Off 



Capo 4th Fret- Standard Tuning


E------------------------------|-------------------------|
B-------3---3----------3--3----|----3----3---------3---3-|
G----2h3-2h3-0-2---2h3-2h3-2---|-2h3--2h3-0-2---2h3-2h3-2|
D---0----0---------0-----------|0-----0---------0--------|
A---0----0---------0-----------|0-----0---------0--------|
E------------------------------|-------------------------|



E------------------------------------|
B----3---3------3---3-------3---3----|
G--2---2---2---2-2h3-0-2--2---2---2--|
D------------0------------0----------|
A-0----0-----0------------0----------|
E-1----0-----------------------------|
[easiest to play the 1st fret on low E w/ thumb]

Lyrics:


Oh Lord live inside me, lead me on my way
Oh Lord live inside me, lead me on my way

E----------------------------|------------------------|
B-------3---3--------3---3---|----3----3-------3---3--|
G----2h3-2h3-2----2h3-2h3-2--|-2h3--2h3-2---2h3-2h3-2-|
D---0----0------0------------|0-----0-------0---------|
A---0----0------0------------|0-----0-------0---------|
E----------------------------|------------------------|

Lead me home
Lead me home

E----------------------------------------------|
B-----3---3----3---3-----3-----3-------3---3---|
G---2---2--2-2---2---2--2---2h3---0-2-2---2---2|
D---------------------0---------------0--------|
A--0--------0---------0---------------0--------|
E--1--------0----------------------------------|
 
Oh Lord in the darkness, lead me on my way
Oh Lord in the darkness, lead me on my way


E----------------------------|-----------------------|
B-------3---3--------3---3---|----3----3-------3---3-|
G----2h3-2h3-2----2h3-2h3-2--|-2h3--2h3-2---2h3-2h3-2|
D---0----0------0------------|0-----0-----0----------|
A---0----0------0------------|0-----0-----0----------|
E----------------------------|-----------------------|

Lead me home
Lead me home

E----------------------------------------------|
B-----3---3----3---3-----3-----3-------3---3---|
G---2---2--2-2---2---2--2---2h3---0-2-2---2---2|
D---------------------0---------------0--------|
A--0--------0---------0---------------0--------|
E--1--------0----------------------------------|
 
Hmmmmm
Hmmmmm

E-------------------------------------------------|
B----3---3----------3-------3-----3--------3---3--|
G--2---2---2-----00-0-0---2---2h3--0-2--2---2---2-|
D--------------2--2-2-0-----------------0---------|
A-0------------0------------------------0---------|
E-1------------0----------------------------------|

E-------------------------------------------------|
B----3---3----------3-------3-----3--------3---3--|
G--2---2---2-----00-0-0---2---2h3--0-2--2---2---2-|
D--------------2--2-2-0-----------------0---------|
A-0------------0------------------------0---------|
E-1------------0----------------------------------|
 
Oh Lord heaven's waitin', open up your door
Oh Lord heaven's waitin', open up your door

E----------------------------|---------------------------|
B-------3---3--------3---3---|----3----3--------3-----3--|
G----2h3-2h3-2----2h3-2h3-2--|-2h3--2h3--2--2h3---2h3---2|
D---0----0------0------------|0-----0-------0------------|
A---0----0------0------------|0-----0-------0------------|
E----------------------------|---------------------------|

Lead me home
Lead me home

E----------------------------------------------|
B-----3---3----3---3-----3-----3-------3---3---|
G---2---2--2-2---2---2--2---2h3---0-2-2---2---2|
D---------------------0------------------------|
A--0--------0---------0------------------------|
E--1--------0----------------------------------|
 
Lead me home
Lead me home

E----------------------------|-------------------------|
B-------3---3--------3---3---|----3----3--------3---3--|
G----2h3-2h3-2----2h3-2h3-2--|-2h3--2h3--0-2--2---2---2|
D---0----0------0------------|0-----0---------0--------|
A---0----0------0------------|0-----0---------0--------|
E----------------------------|-------------------------|

 
Lead me home
Lead me home

E---------------------|
B---------------------|
G-----------0---------|
D--3-----2--2-----0---|
A--0-----0--0-----0---|
E--1------------------|
comments
print report bad tab
2 comments total.
0 reply
TLWerewolf wrote on June 14 2013, 01:35 pm

I think that the tuning should be drop D. I just saw a video of the composer playing live and he used his middle finger to play the sixth string in the third fret (counting from the capo), then he used his tumb on the second fret of the same string and finally, he played it open. Instead of:
E----------------------------------------------|
B-----3---3----3---3-----3-----3-------3---3---|
G---2---2--2-2---2---2--2---2h3---0-2-2---2---2|
D---------------------0---------------0--------|
A--0--------0---------0---------------0--------|
E--1--------0----------------------------------|
It was something like this:
E----------------------------------------------|
B-----3---3----3---3-----3-----3-------3---3---|
G---2---2--2-2---2---2--2---2h3---0-2-2---2---2|
D---------------------0---------------0--------|
A--0--------0---------0---------------0--------|
D--3--------2---------0------------------------|

Also, he plays every now and then a A on the fourth string (third fret, counting from the capo). It's barely noticeable, but it's something like this: (I probably placed the A incorrectly)
E----------------------------|------------------------|
B-------3---3--------3---3---|----3----3-------3---3--|
G----2h3-2h3-2----2h3-2h3----|-2h3--2h3-2---2h3-2h3---|
D---0----0------0---------3--|0-----0-------0-------3-|
A---0----0------0------------|0-----0-------0---------|
E----------------------------|------------------------|
instead of:
E----------------------------|------------------------|
B-------3---3--------3---3---|----3----3-------3---3--|
G----2h3-2h3-2----2h3-2h3-2--|-2h3--2h3-2---2h3-2h3-2-|
D---0----0------0------------|0-----0-------0---------|
A---0----0------0------------|0-----0-------0---------|
E----------------------------|------------------------|
Besides those little things, it was an overall nice tab and it saved me, thank you very much :)

0 reply
Forsakend1 wrote on September 28 2013, 06:19 pm

Awesome tab man. I was really surprised to find this because it's not a really popular song.

I want to post or [tab]
guest
You may want to rate the tab now too:
select rating
Please do not post tabs as comments. Select "correction" instead!