Oops, an error
Loading. Please wait.

Shadows chords

10 views 1 this week
no commentswrite comment
1 2 3 4 5
3 more votes to show rating
add to favorites
×
Save as Personal and add changes to this tab that will be seen only by you. Learn more ›
×
You can save this tab as Personal to edit and correct it or add notes. All changes will be seen only by you. Learn more »
launch autoscroll
font size
0
reset
transpose
0
reset
simplify chords
display chords
guitar tuner
edit
Autoscroll
slow
fast
+/-
esc
set tempo
stop
Strumming
There is no strumming pattern for this song yet. and get +5 IQ
Strumming Pattern : D D U D U D _ D U D U D 

[Intro]
G C
(I like to incorporate the tab below as I strum. I keep my index free for the pull-off)
(There is also a hammer-on when playing the C) (A|--0h2---|)

e|--3--2p0--------------------|
B|----------3-0-1-------------|
G|----------------------------|
D|----------------------------|
A|----------------------------|
E|----------------------------|

[Verse]
G
She's the reason for the inch that I steal
C
To see through the glass and watch her reveal
D
  The smile that she wears
D7
To see another man who don't see it

[Instrumental]
G C G 

[Verse]
G
I trip but stand for another 5 seconds
C
To see the smile she wears, to hide her unseen intentions
D 
  But I'm wise to it
D7                                       G               C G
If only you knew that you walk through my mind each night

[Chorus]
Em                 D              C              G            F           C
I can see from the smile that you wear, you're a star and I'm making sure of it
Em                  D        C             G         F           C 
I can see from your innocent way, you're a queen and nobody knows it

e|---------0------------------|
B|---------1------------------|
G|---------0------------------|
D|---------2------------------|
A|--0h2-3--3------------------|
E|---------0------------------|
           ^
C                                D
  You see everyone else but they don't see you
        D
And whatever I say I do, I'm a shadow for you

[Instrumental]
G C

e|--3--2p0--------------------|
B|----------3-0-1-------------|
G|----------------------------|
D|----------------------------|
A|----------------------------|
E|----------------------------|

[Verse]
G
She walks in the rain so you don't see her cry
C
She's a fool of a woman and I'll tell you why
D                                D7                   G  C  G
If you just look behind you, you see me lying beside you
G
Month or so passed and I returned to the store
C
Her eyes look as sad as when I came here before
D                               D7
Cause no other man has told you what I've known for so long

[Chorus]
Em                  D        C            G        F      C
I can see from your innocent way you're a star and nobody knows it
Em                 D              C             G             F           C
I can see from the smile that you wear you're a queen and I'm making sure of it
C
You see everyone else but they don't see you
        D               
And whatever I say or do
D7
I'm invisible to you

G (one pattern before Bridge)
e|--3--2p0--------------------|
B|----------3-0-1-------------|
G|----------------------------|
D|----------------------------|
A|----------------------------|
E|----------------------------|

[Bridge]
      C                 Cadd9
I can paint a sky blue, walk down into
    D
Whatever I say or do
D7
  I'm a shadow for you

G C

                   G     
You know you're my woman
                   F
There ain't no hesitation
              C
I said that I love you
               G
A love for all time
Sure yeah

[Outro]
G F C G
e|--3--2p0------------|----0----0-----|--------------|
B|----------3-0-1-----|----1----0-----|-----1---0----|
G|--------------------|----2----2-----|-----2---2----|
D|--------------------|----3----3-----|-----2---0----|
A|--------------------|----3----3-----|-----3---3----|
E|--------------------|----1----1-----|--------------|
           G              F (thumb on E)      C             G

            
            
Suggest correction
Creating personal tab
Creating personal tab
You can edit any tab online and save it as your Personal.

You can edit, replace or remove any tab part or add personal notes – all changes will be seen only by you.

Personal tabs can be accessed anytime from any device, even offline.
Learn more »
Give kudos to tab author, rate the tab!
1 2 3 4 5
comments
print report bad tab
guest
You may want to rate the tab now too:
select rating
Wanna post a correction for this tab? Suggest correction