Oops, an error
Loading. Please wait.

Back In The Game tab

version 2
version 2

Whole song

Interactive

by Jamie T
399 views 9 this week
no commentswrite comment
1 2 3 4 5
2 more votes to show rating
add to favorites
×
Save as Personal and add changes to this tab that will be seen only by you. Learn more ›
×
You can save this tab as Personal to edit and correct it or add notes. All changes will be seen only by you. Learn more »
launch autoscroll
font size
0
reset
how to read this tab
guitar tuner
edit
Autoscroll
slow
fast
+/-
esc
set tempo
stop
Jamie T - Back in the Game

Tuning: Drop D


I thought the other tab was slightly off, this is the general gist some of the verses 
are played slightly differently, and the chorus is more strummed a bit messily than the 
two distinct open strings (The fret 2).
Timings are not done properly but the lyrics should give an idea and then just listen to 
the song and it should all make sense.
Played in drop D to give some of the deeper bass notes, this song is played on a bass so 
this is just a 6-string version.


Verse:

Take your brother...

e|---------------------|
B|---------------------|
G|---------------------|
D|--4----0----2----4---|     x2
A|-5----2-----5----7---|
D|---------------------|

A crowded room...

e|---------------------------------------------|
B|---------------------------------------------|
G|---------------------------------------------|
D|--4-4-4-4----0-0-0-0-------------------------|      x2
A|-5-5-5-5-5--2-2-2-2-2---2-2-2-2----4-4-4-4---|
D|-----------------------5-5-5-5-5--7-7-7-7-7--|


Fill

e|----------------------------------|
B|----------------------------------|
G|----------------------------------|
D|-4-4-4-4-4-4-4-4-5-5-5-5-7-7-7-7--|
A|-5-5-5-5-5-5-5-5-5-5-5-5-7-7-7-7--|
D|-0-0-0-0-0-0-0-0-5-5-5-5-7-7-7-7--|

e|----------------------------------|
B|----------------------------------|
G|----------------------------------|
D|-4-4-4-4-4-4-4-4-5-5-5-5----------|
A|-5-5-5-5-5-5-5-5-5-5-5-5----------|
D|-0-0-0-0-0-0-0-0-5-5-5-5----------|

Verse:

So crazy Billy...

e|---------------------|
B|---------------------|
G|---------------------|
D|--4----0----2----4---|     x2
A|-5----2-----5----7---|
D|---------------------|

You said was just a loan....

e|---------------------------------------------|
B|---------------------------------------------|
G|---------------------------------------------|
D|--4-4-4-4----0-0-0-0-------------------------|
A|-5-5-5-5-5--2-2-2-2-2---2-2-2-2----4-4-4-4---|
D|-----------------------5-5-5-5-5--7-7-7-7-7--|

                                    Just gonna lower the tone...

e|----------------------------------------------------|
B|----------------------------------------------------|
G|----------------------------------------------------|
D|--4-4-4-4----0-0-0-0--------------------------------|
A|-5-5-5-5-5--2-2-2-2-2---2-2-2-2----2-2-2-2-2-2-2-2--|
D|-----------------------5-5-5-5-5--2-2-2-2-2-2-2-2-2-|

Chorus:

After about...

e|------------------------------------|
B|------------------------------------|
G|------------------------------------|
D|------------------------------------|   x4
A|--0-0-0-0--2-2-2-2--5-5-5-5-5-5-5-5-|
D|-0-0-0-0--2-2-2-2---5-5-5-5-5-5-5-5-|

Fill 2:

e|--------------------------------------------|
B|--------------------------------------------|
G|--------------------------------------------|       x4
D|--------------------------------------------|
A|--------------------------------------------|
D|-0-----12-10----7--12-10----5--12-10----0-0-|

Verse:

A tainted brain...

e|---------------------|
B|---------------------|
G|---------------------|
D|--4----0----2----4---|     x2
A|-5----2-----5----7---|
D|---------------------|

With a bother boy blues...

e|---------------------------------------------|
B|---------------------------------------------|
G|---------------------------------------------|
D|--4-4-4-4----0-0-0-0-------------------------|
A|-5-5-5-5-5--2-2-2-2-2---2-2-2-2----4-4-4-4---|
D|-----------------------5-5-5-5-5--7-7-7-7-7--|

                                   For who the bell tolls...
e|-----------------------------------------------------|
B|-----------------------------------------------------|
G|-----------------------------------------------------|
D|--4-4-4-4----0-0-0-0---------------------------------|
A|-5-5-5-5-5--2-2-2-2-2---2-2-2-2----2-2-2-2-2-2-2-2---|
D|-----------------------5-5-5-5-5--2-2-2-2-2-2-2-2-2--|

Chorus:

e|------------------------------------|
B|------------------------------------|
G|------------------------------------|
D|------------------------------------|     x4
A|--0-0-0-0--2-2-2-2--5-5-5-5-5-5-5-5-|
D|-0-0-0-0--2-2-2-2---5-5-5-5-5-5-5-5-|

            
            
Suggest correction
Creating personal tab
Creating personal tab
You can edit any tab online and save it as your Personal.

You can edit, replace or remove any tab part or add personal notes – all changes will be seen only by you.

Personal tabs can be accessed anytime from any device, even offline.
Learn more »
Give kudos to tab author, rate the tab!
1 2 3 4 5
comments
print report bad tab
guest
You may want to rate the tab now too:
select rating
Wanna post a correction for this tab? Suggest correction