Oops, an error
Loading. Please wait.

Robots Tab

916 views 1 this week
no commentswrite comment
1 2 3 4 5
please rate
add to favorites
launch autoscroll
font size
0
reset
how to read this tab
guitar tuner
Tab Pro tools
  • play this tab
  • loop segment
  • change instrument
  • show fretboard
  • metronome
×
Best way to learn
"Robots"
Autoscroll
slow
fast
+/-
esc
set tempo
stop
Contributor
Artist : Jamie Woon
Album  : Breathing Binary EP
Year   : 2004
Song   : Robots
Tuning : C-G-C-G-G-C

Guitar 1 - Acoustic Guitar
Guitar 2 - Acoustic Guitar
Guitar 3 - Electric Guitar (Clean w/ Tremolo & Rotary Leslie)
Guitar 4 - Electric Guitar (Clean)


Intro
(Guitar 1)
D|----------------|
G|----------------|
G|--------0--0~---|
C|------6----0~---|
G|----4------3~---|
C|--4--------3~---|


Verse
(Guitar 1)                              
D|----------------0--0--0--0--0--|
G|----------------0--0--0--0--0--|
G|--------0-------0--0--0--0--0--|
C|------6----0~---0--0--0--0--0--|
G|----4------3~---3--3--3--3--3--|
C|--4--------3~---3--3--3--3--3--|

D|----------------0~----0-----0--0---0-0-0-0--|
G|----------------0~----0-----0--0---0-0-0-0--|
G|--------0-------0~----0-0-0-0--0-0-0-0-0-0--|
C|------6----0~---0~----0-0-0-7--7-7-7-7-7-7--|
G|----4------3~---3~----3-3-3/5--5-5/7-7-7-7--|
C|--4--------3~---3~----3-3-3/5--5-5/7-7-7-7--|


Chorus
(Guitar 1)                              
C|------------------------------------------------------------------------------|
G|------------------------------------------------------------------------------|
G|--0--0-0-0-0--0-0-0-0-0-0-0--0-0--0--0~--------0--0-0~--------0--0-0--0~------|
C|--2--2-2/4-4--4/6-6-6/7-7/9--9/11-11-11h12p11--11-1111h12h11--11-1111-11~-----|
G|--0--0-0-0-0--0-0-0-0-0-0-0--0-0--0--0~--------0--0-0~--------0--0-0--0~------|
C|--0--0-0-0-0--0-0-0-0-0-0-0--0-0--0--0~--------0--0-0~--------0--0-0--0~------|

(Guitar 2)  
D|--2--2-2/4-4--4/5-5-5/7-7/9--9-9--9--9h10p9~--------9h10p9~------12---9h10p9--|
G|--0--0-0-0-0--0-0-0-0-0-0-0--0-0--0--0-0--0~--------0-0--0~------0----0-------|
G|--0--0-0-0-0--0-0-0-0-0-0-0--0-0--0--0-0--0~--------0-0--0~------0----0-------|
C|------------------------------------------------------------------------------|
G|------------------------------------------------------------------------------|
C|------------------------------------------------------------------------------|

(Guitar 3) 
C|--0~-------------------------------------------0~-----------------------------|
G|--0~-------------------------------------------0~-----------------------------|
G|--0~-------------------------------------------0~-----------------------------|
C|--7~-------------------------------------------6~-----------------------------|
G|--9~-------------------------------------------0~-----------------------------|
C|------------------------------------------------------------------------------|


Verse 2
(Guitar 1)                              
D|----------------0--0--0--0--0--|
G|----------------0--0--0--0--0--|
G|--------0-------0--0--0--0--0--|
C|------6----0~---0--0--0--0--0--|
G|----4------3~---3--3--3--3--3--|
C|--4--------3~---3--3--3--3--3--|

D|----------------0~----0-----0--0---0-0-0-0--|
G|----------------0~----0-----0--0---0-0-0-0--|
G|--------0-------0~----0-0-0-0--0-0-0-0-0-0--|
C|------6----0~---0~----0-0-0-7--7-7-7-7-7-7--|
G|----4------3~---3~----3-3-3/5--5-5/7-7-7-7--|
C|--4--------3~---3~----3-3-3/5--5-5/7-7-7-7--|

(Guitar 4)                                                       variation
C|-----------------------------------------------------|---------------------------|
G|-----------------------------------------------------|---------------------------|
G|------12-x12xx12-x12xx1212-12x12xx12/141414/15p14-xx-|-12x12xx12/10101010h12-xx--|
C|-----------------------------------------------------|---------------------------|
G|-----------------------------------------------------|---------------------------|
C|-----------------------------------------------------|---------------------------|


Chorus
(Guitar 1)                              
C|-------------------------------------------------------------------------------|
G|-------------------------------------------------------------------------------|
G|--0--0-0-0-0--0-0-0-0-0-0-0--0-0--0--0~--------0------0-------0-------0--------|
C|--2--2-2/4-4--4/6-6-6/7-7/9--9/11-11-11h12p11--6------6b------6b------6b-xxxx--|
G|--0--0-0-0-0--0-0-0-0-0-0-0--0-0--0--0~--------4-4444-4--4444-4--4444-4--xxxx--|
C|--0--0-0-0-0--0-0-0-0-0-0-0--0-0--0--0~--------4-4444-4--4444-4--4444-4--xxxx--|

(Guitar 4)  
C|-------------------------------------------------4p0------4p0----4p0-----------|
G|-------------------------------------------------------------------------------|
G|--0--0-0-0-0--0-0-0-0-0-0-0--0-0--0--0~---------------4bp0----4bp0----4bp0~----|
C|--2--2-2/4-4--4/6-6-6/7-7/9--9/11-11-11h12p11----------------------------------|
G|--0--0-0-0-0--0-0-0-0-0-0-0--0-0--0--0~----------------------------------------|
C|--0--0-0-0-0--0-0-0-0-0-0-0--0-0--0--0~--------4~------------------------------|


Interlude
(Guitar 1)                              
D|--------------------------------------0--0--0--0--0--|
G|--------------------------------------0--0--0--0--0--|
G|--------0----------0----------0-------0--0--0--0--0--|
C|------6----------6----------6----0~---0--0--0--0--0--|
G|----4----------4----------4------3~---3--3--3--3--3--|
C|--4-------4~-4-------4~-4--------3~---3--3--3--3--3--|

(there are a few variations of this riff, so listen to the song)


Harmonics Passage
(Guitar 2)                              
D|-----------12*-----12*-----12*--------|
G|-----12*-----12*-12*-12*-12*-12*-12*--|
G|--12*---12*----12*-----12*-----12*----|
C|--------------------------------------|
G|--------------------------------------|
C|--------------------------------------| (repeat constantly)

(Guitar 1)                              
D|----------------0--0--0--0--0--|
G|----------------0--0--0--0--0--|
G|--------0-------0--0--0--0--0--|
C|------6----0~---0--0--0--0--0--|
G|----4------3~---3--3--3--3--3--|
C|--4--------3~---3--3--3--3--3--|

D|----------------0~----0-----0--0---0-0-0-0--|
G|----------------0~----0-----0--0---0-0-0-0--|
G|--------0-------0~----0-0-0-0--0-0-0-0-0-0--|
C|------6----0~---0~----0-0-0-7--7-7-7-7-7-7--|
G|----4------3~---3~----3-3-3/5--5-5/7-7-7-7--|
C|--4--------3~---3~----3-3-3/5--5-5/7-7-7-7--|



Chorus
(Guitar 1)                              
C|-------------------------------------------------------------------------------|
G|-------------------------------------------------------------------------------|
G|--0--0-0-0-0--0-0-0-0-0-0-0--0-0--0--0~--------0------0-------0-------0--------|
C|--2--2-2/4-4--4/6-6-6/7-7/9--9/11-11-11h12p11--6------6b------6b------6b-xxxx--|
G|--0--0-0-0-0--0-0-0-0-0-0-0--0-0--0--0~--------4-4444-4--4444-4--4444-4--xxxx--|
C|--0--0-0-0-0--0-0-0-0-0-0-0--0-0--0--0~--------4-4444-4--4444-4--4444-4--xxxx--|

(Guitar 4)  
C|-------------------------------------------------4p0------4p0----4p0-----------|
G|-------------------------------------------------------------------------------|
G|--0--0-0-0-0--0-0-0-0-0-0-0--0-0--0--0~---------------4bp0----4bp0----4bp0~----|
C|--2--2-2/4-4--4/6-6-6/7-7/9--9/11-11-11h12p11----------------------------------|
G|--0--0-0-0-0--0-0-0-0-0-0-0--0-0--0--0~----------------------------------------|
C|--0--0-0-0-0--0-0-0-0-0-0-0--0-0--0--0~--------4~------------------------------|
comments
We did not receive enough feedback on this tab! Please rate:
print report bad tab
1 2 3 4 5
I want to post or [tab]
guest
You may want to rate the tab now too:
select rating
Please do not post tabs as comments. Select "correction" instead!