Oops, an error
Loading. Please wait.

Gosh tab

319 views 3 this week
no commentswrite comment
1 2 3 4 5
x 3
add to favorites
×
Save as Personal and add changes to this tab that will be seen only by you. Learn more ›
×
You can save this tab as Personal to edit and correct it or add notes. All changes will be seen only by you. Learn more »
launch autoscroll
font size
0
reset
how to read this tab
guitar tuner
edit
Autoscroll
slow
fast
+/-
esc
set tempo
stop
About this tab version
Probably the only tab you can find for this song as this was tabbed by ear. Was this info helpful? Yes No
An electronic song originally, but I have adapted it as simply as I can into chords and tabs, I apologize in
advance for any inaccuracies as this was tabbed by ear. I am not entirely sure if the riff is correct but it
sounds right to me, if anyone has any ideas please comment below. Since there are almost no lyrics to this
song, I used a time scale in accordance to the music video by Romain Gavras on YouTube:
https://www.youtube.com/watch?v=hTGJfRPLe08
And don't forget the excessive reverb Jamie XX always uses in his songs

Capo 1st Fret | Standard Tuning

D     - xx0232
A     - x03330
G     - 320033
F     - 133211
Bm    - x24432

~~~~~~~~~~~~~~~~~~~~~~~~~~~~~~~~~~~~~~~~~~~~~~~~~~~~~~~~~~~~~~~~~~~~~~~~~~~~~~~~~~~~~~~~~~~~~~~~~~~~~~~~~~~~~

(0:00 - 2:10) (Percussion only)
[Verse 1] 

Oh my gosh
Oh my gosh
Easy easy!
Hold it down
Hold it down

Oh my gosh
Oh my gosh
Easy easy!
Hold it down
Hold it down


(2:11 - 2:19)

A    G    G    G
(Melody from 2:11 to 2:19)


(2:34 - 3:14)
*Start by hitting the base notes only, repeat until 3:14 where the melody kicks in

e|---------------------------------------------------|-------------------------------------------------|
B|---------------------------------------------------|-------------------------------------------------|
G|---------------------------------------------------|-------------------------------------------------|
D|---------------------------------------------------|------0--0--0--0--0--0--0--0--0--0--0--0--0--0--0|
A|0--0-----------------------------------------------|0--0---------------------------------------------|
E|------3--3--3--3--3--3--3--3--3--3--3--3--3--3--3--|-------------------------------------------------|


(3:14 - end) (Rhythm guitar)
*All downstrokes at 120bpm

A  A  G  G  G  G  G  G  G  G  G  G  G  G  G  G  A  A  D  D  D  D  D  D  D  D  D  D  D  D  D  D


(3:20 - end) (Lead guitar)

e|------------------------------------------------|------------------------------------------------|
B|------------------------------------------------|------------------------------------------------|
G|4--4--4--4--4--4--4--4--4--4--4--4--4--4--6--6--|2--2--2--2--2--2--2--2--2--2--2--2--2--2--6--6--|
D|------------------------------------------------|------------------------------------------------|
A|------------------------------------------------|------------------------------------------------|
E|------------------------------------------------|------------------------------------------------|

e|------------------------------------------------|---------------------------------------------------------|
B|------------------------------------------------|---------------------------------------------------------|
G|4--4--4--4--4--4--4--4--4--4--4--4--4--4--2--2--|------------------------4--2-----4--2-----4--2-----2--4--|
D|------------------------------------------------|4--4--4--4--4--4--4--4--------4--------4--------4--------|
A|------------------------------------------------|---------------------------------------------------------|
E|------------------------------------------------|---------------------------------------------------------|

e|------------------------|--------------------------------------------------------|
B|------------------------|3--2-----3--2-----3--2----------------------------------|
G|4--4--4--4--4--4--4--4--|------2--------2--------2--0h2--2--2--2--2--2--2--2--2--|
D|------------------------|--------------------------------------------------------|
A|------------------------|--------------------------------------------------------|
E|------------------------|--------------------------------------------------------|

e|3--2-----3--2-----3--2----------------------------------|9--5-----9--5-----9--5--5--5--5--5--5--5--5|
B|------3--------3--------3--0h3--3--3--3--3--3--3--3--3--|------7--------7---------------------------|
G|--------------------------------------------------------|-------------------------------------------|
D|--------------------------------------------------------|-------------------------------------------|
A|--------------------------------------------------------|-------------------------------------------|
E|--------------------------------------------------------|-------------------------------------------|

e|------10-12-|       e|15-14-----|      e|----10--10--10--10--10--10--10--10--|
B|12-13-------|       B|------15--|      B|12----------------------------------|
G|------------|x12    G|----------|x7    G|------------------------------------|
D|------------|       D|----------|      D|------------------------------------|
A|------------|       A|----------|      A|------------------------------------|
E|------------|       E|----------|      E|------------------------------------|

e|---------------------------------------------------------|---------------------------------|
B|5--3--7--5--3--7--5--3--7--5--3--3--3--3--3--3--3--3--3--|2-----3--2-----3--2-----3--------|
G|---------------------------------------------------------|---4--------4--------4-----2-----|
D|---------------------------------------------------------|------------------------------4--|
A|---------------------------------------------------------|---------------------------------|
E|---------------------------------------------------------|---------------------------------|

e|------------------------------------------------------------------|      e|------------|   
B|------------------------------------------------------------------|      B|------------|
G|------------------------------------------------------------------|      G|------------|repeat to the end
D|4--4--4--4--4--4--4--4--------4-----------------------------------|      D|------2--4--|
A|------------------------4--0-----4--0--2--2--2--2--2--2--2--2--2--|      A|4--5--------|
E|------------------------------------------------------------------|      E|------------|

************************************

| h   hammer-on

************************************

For James

            
            
Suggest correction
Creating personal tab
Creating personal tab
You can edit any tab online and save it as your Personal.

You can edit, replace or remove any tab part or add personal notes – all changes will be seen only by you.

Personal tabs can be accessed anytime from any device, even offline.
Learn more »
Give kudos to tab author, rate the tab!
1 2 3 4 5
comments
print report bad tab
guest
You may want to rate the tab now too:
select rating
Wanna post a correction for this tab? Suggest correction