Oops, an error
Loading. Please wait.

Stranger In A Room tab

version 2
version 2

Whole song

1,977 views 15 this week
3 commentsread comments
1 2 3 4 5
x 6
add to favorites
×
Save as Personal and add changes to this tab that will be seen only by you. Learn more ›
×
You can save this tab as Personal to edit and correct it or add notes. All changes will be seen only by you. Learn more »
launch autoscroll
font size
0
reset
how to read this tab
guitar tuner
edit
Autoscroll
slow
fast
+/-
esc
set tempo
stop
Author
Difficulty
Stranger in a room 
Jamie xx ft. Oliver Sim
from album "In Colour" by Jamie xx

Tabbed by: KK Espada
Email: kk.espada@gmail.com

Correction is welcome.

*EDIT: this tab below has been corrected*

e|---------------------------------------------------------------|
B|---------------------------------------------------------------|
G|--------------------12-----------------------------------------|
D|--13-------12--------------10----------------------------------|
A|---------------------------------------------------------------|
E|---------------------------------------------------------------|

e|---------------------------------------------------------------|
B|---------------------------------------------------------------|
G|--------------------12-----13----------------------------------|
D|--13----15-12-----13----------10-------------------------------|
A|---------------------------------------------------------------|
E|---------------------------------------------------------------|

e|---------------------------------------------------------------|
B|---------------------------------------------------------------|
G|---------------------------------------------------------------|
D|--13-13-13---13-13-13-15---12-12-12---12-12-12-13-13-----------|
A|---------------------------------------------------------------|
E|---------------------------------------------------------------|

e|---------------------------------------------------------------|
B|----14--14--------14--14---------------------------------------|
G|--12--12--------12--12---13------------------------------------|
D|---------------------------------------------------------------|
A|---------------------------------------------------------------|
E|---------------------------------------------------------------|

e|---------------------------------------------------------------|
B|---------------------------------------------------------------|
G|--------------------12-----13----------------------------------|
D|--13-----15-12----13----------10-------------------------------|
A|---------------------------------------------------------------|
E|---------------------------------------------------------------|

e|----------------------------------------------------------------------|
B|--------------------------------------11-11---------------------------|
G|--------------10/12-12----------------------10/12--12\10\8---12\10\8--|    (x2)
D|--10-10-13-13-------------10-10-13-13---------------------------------|
A|----------------------------------------------------------------------|
E|----------------------------------------------------------------------|

e|---------------14/16-16---------------20-20-14/16--16\14\12---16\14\12-|    
B|--13-13-16-16-------------13-13-16-16----------------------------------| 
G|-----------------------------------------------------------------------|   (x2)
D|-----------------------------------------------------------------------|
A|-----------------------------------------------------------------------|
E|-----------------------------------------------------------------------|

End.

| /  slide up
| \  slide down
| h  hammer-on
| p  pull-off
| ~  vibrato
| +  harmonic
| x  Mute note

            
            
Suggest correction
Creating personal tab
Creating personal tab
You can edit any tab online and save it as your Personal.

You can edit, replace or remove any tab part or add personal notes – all changes will be seen only by you.

Personal tabs can be accessed anytime from any device, even offline.
Learn more »
comments
print report bad tab
3 comments total.
0 reply
potter1954 78 Jun 15, 2015 04:42 PM

Lack of accuracy. Clearly wrong. The creator's guitar must be in a different key or listening to a pitched version of the son, all the tabs are either one fret or two frets above the actual key

0 reply
potter1954 78 Jun 15, 2015 04:43 PM

I think you're guitar is either in a different key, or you're listening to a pitched version of the song. All the tabs are either one fret or two frets above the actual key.

guest
You may want to rate the tab now too:
select rating
Wanna post a correction for this tab? Suggest correction