Oops, an error
Loading. Please wait.

Capricorn Day Bass Tab

1,159 views 1 this week
1 commentread comment
1 2 3 4 5
2 more votes to show rating
add to favorites
launch autoscroll
font size
0
reset
guitar tuner
Autoscroll
slow
fast
+/-
esc
set tempo
stop
Help us to improve Ultimate-Guitar.com Take our survey!
×
Intro slide
D-|--9--|
                                                                
 Verse                                                          
|-----------------------------|-----------------------------|   
|-----------------------------|-----------------------5-----|   
|-7------7------5h7----7------|-7---7-4---4-5-----5-7----7-5|   
|-----------------------------|-----------------7-----------|   
 Chorus                                                         
|-----------------------------|-----------------------------|   
|-----------------------------|-----------------------5-----|   
|-7-7-7---------7-7-7---------|-7---7-4---4-5-----5-7----7-5|   
|-------0-------------0-------|-----------------7-----------|

The Variations:                                       
in Verse1        in Verse2              in Verse3     
-------------|   -------------|   -------------------|
-------5-----|   -------------|   -------------------|
---5-7---7-5-|   -2-5-2-0-----|   -4-5-5-------------|
-7----------7|   --------3-0-0|   -------7-7-5--3--5-|
in Chorus1       in Chorus2&3           in Chorus3    
-------------|   -------------|         -------------|
-----5-------|   -------5-----|         -------------|
-5-7---7-5---|   ---5-7---7-5-|         --5--5-------|
----------7-5|   -7-----------|         -7--7--7-5-7-|

 Bridge (first three bars of this line are replaced with 'b' later on)
|----6---4h6-------6---4h6----|----6---4h6-------04-4----4-5|-6----------------3--4-------|
|-----------------------------|-4-------------6---------6---|---------------6-------------|
|-4-------------7-------------|-----------------------------|---4--------04---------------|
|-----------------------------|-----------------------------|-----------------------------|

|-----------------------------|
|--------------------4-6------|
|--------------4-7-4----------|
|-------------------------7---|

|---|--------8h9--8-------4h6-----|---|-----------------------------|
|---|--------------------------4-6|---|-----------------------------|
|-b-|------------------------4----|-b-|-------------4-7-4-----------|
|---|-----------------------------|---|----------4-7-----7-4-7-4----|

|---|------------------4----------|---|--------8h9-0-4-6------4-----|
|---|--------9h8---------6-4------|---|------------------0-4-6-6-4--|
|-b-|------------------------7-4--|-b-|----------------------------7|
|---|----------------------------7|---|-----------------------------|

---|-----------------------------|---|-----------------------------|---|
---|-----------------------------|---|--------------------4-6------|---|
-b-|-------------4-7-4-----------|-b-|--------------4-7-4----------|-b-|
---|----------4-7-----7-4-2-0----|---|-------------------------7---|---|

 Break
|--------9----6---------------|-11-----9--------------------|-11-----9--------------------|
|-----------------------------|-------------11--------------|-------------11--------------|
|-2//7-------------------2//9-|------------------------2//9-|------------------------2//9-|
|-----------------------------|-----------------------------|-----------------------------|

|-11-----9--------------------|
|-------------11-----5p4------|
|------------------------7-4--|
|----------------------------7|
 Bridge 2
|---|---------------8h9----8------|---|-----------------------------|---|
|---|-----------------------------|---|----6-4----------------------|---|
|-b-|-----------------------------|-b-|--4-----7---------7-6-4------|-b-|
|---|-----------------------------|---|----------------4-------7-4--|---|

|-8---9p8---------------------|---|
|----------11--9--------------|---|
|------------------7-6-4------|-b-|
|------------------------7----|---|
Suggest correction
Give kudos to tab author, rate the tab!
1 2 3 4 5
comments
print report bad tab
1 comment total.
0 reply
Nivohq 10 Jun 11, 2011 02:20 AM

oh boy, nice tab

guest
You may want to rate the tab now too:
select rating
Wanna post a correction for this tab? Suggest correction