Oops, an error
Loading. Please wait.

Cloud 9 bass

version 1
version 1

Whole song

  • Tricky staccato rhythms in this song, and the chor... Show more
  • Standard tuning as originally requested, 5-string ... Show more
1,990 views 33 this week
2 commentsread comments
1 2 3 4 5
x 7
add to favorites
×
Save as Personal and add changes to this tab that will be seen only by you. Learn more ›
×
You can save this tab as Personal to edit and correct it or add notes. All changes will be seen only by you. Learn more »
launch autoscroll
font size
0
reset
guitar tuner
edit
Autoscroll
slow
fast
+/-
esc
set tempo
stop
About this tab version
Tricky staccato rhythms in this song, and the choruses take out measures on the end of the first 2 choruses and beginning of the last chorus adding to the offbeat feel. Please rate/comment. Was this info helpful? Yes No
Jamiroquai - Cloud 9 (bass synth arranged for bass guitar)
tuning - Drop D
tabbed by jjhand


[Verse 1]

   note the different rhythms on each line
G|----------------------|------------------------|----------------------|------------------------|
D|----------------------|-----5h7----------------|----------------------|-----5h7----------------|
A|----------------------|-----------5h7----------|----------------------|-----------5h7----------|
D|-7-------5h7-------5h-|-7----------------------|-7-------5h7-------5h-|-7--------------2--2-2--|

G|----------------------|------------------------|----------------------|------------------------|
D|----------------------|-----5h7----------------|----------------------|---5h7------------------|
A|----------------------|-----------5h7----------|----------------------|-------------5h7--------|
D|-7-------5h7-------5h-|-7----------------------|-7-------5h7-------5h-|-7----------------2--5--|

G|----------------------|------------------------|----------------------|------------------------|
D|----------------------|-----5h7----------------|----------------------|-----5h7----------------|
A|----------------------|-----------5h7----------|----------------------|--------------5h7-------|
D|-7-------5h7-------5h-|-7----------------------|-7-------5h7-------5h-|-7-----------------2-2--|

G|----------------------|------------------------|----------------------|------------------------|
D|----------------------|-----5h7----------------|----------------------|------------------------|
A|----------------------|-------------5h7--------|----------------------|-------rest-------------|
D|-7-------5h7-------5h-|-7-----------------2-2--|-7-------5h7----------|------------------------|



[Chorus]

   
G|----------------------|------------------------|----------------------|------------------------|
D|---------5h7----------|-----------5h7----------|----------------------|-----------5h7----------|
A|----------------------|------------------------|---------5h3----------|------------------------|
D|-7--------------------|-0----------------------|-3--------------------|-7----------------------|

G|----------------------|------------------------|----------------------|------------------------|
D|---------5h7----------|------------------------|----------------------|-----------5h7----------|
A|----------------------|-----------3h5----------|---------5h3----------|------------------------|
D|-7--------------------|-0----------------------|-3--------------------|-7----------------------|

G|----------------------|------------------------|----------------------|------------------------|
D|---------5h7----------|-----------5h7----------|----------------------|-----------5h7----------|
A|----------------------|------------------------|---------5h3----------|------------------------|
D|-7--------------------|-0----------------------|-3--------------------|-7----------------------|

G|----------------------|------------------------|----------------------|
D|---------5h7----------|------------------------|----------------------|
A|----------------------|-----------3h5----------|---------5h3----------| Go right into Verse 2 
D|-7--------------------|-0----------------------|-3--------------------|



[Verse 2]

G|----------------------|------------------------|----------------------|------------------------|
D|----------------------|-----5h7----------------|----------------------|-----5h7----------------|
A|----------------------|-----------5h7----------|----------------------|-----------5h7----------|
D|-7-------5h7-------5h-|-7----------------------|-7-------5h7-------5h-|-7--------------2--2-2--|

G|----------------------|------------------------|----------------------|------------------------|
D|----------------------|-----5h7----------------|----------------------|---5h7------------------|
A|----------------------|-----------5h7----------|----------------------|-------------5h7--------|
D|-7-------5h7-------5h-|-7----------------------|-7-------5h7-------5h-|-7----------------2--5--|

G|----------------------|------------------------|----------------------|------------------------|
D|----------------------|-----5h7----------------|----------------------|-----5h7----------------|
A|----------------------|-----------5h7----------|----------------------|-------------5h7--------|
D|-7-------5h7-------5h-|-7----------------------|-7-------5h7-------5h-|-7-----------------2-2--|

G|----------------------|------------------------|----------------------|------------------------|
D|----------------------|-----5h7----------------|----------------------|------------------------|
A|----------------------|-------------5h7--------|----------------------|------------------------|
D|-7-------5h7-------5h-|-7-----------------2-2--|-7-------5h7----------|----------5p2-----------|



[Chorus]

G|----------------------|------------------------|----------------------|------------------------|
D|---------5h7----------|-----------5h7----------|----------------------|-----------5h7----------|
A|----------------------|------------------------|---------5h3----------|------------------------|
D|-7--------------------|-0----------------------|-3--------------------|-7----------------------|

G|----------------------|------------------------|----------------------|------------------------|
D|---------5h7----------|------------------------|----------------------|-----------5h7----------|
A|----------------------|-----------3h5----------|---------5h3----------|------------------------|
D|-7--------------------|-0----------------------|-3--------------------|-7----------------------|

G|----------------------|------------------------|----------------------|------------------------|
D|---------5h7----------|-----------5h7----------|----------------------|-----------5h7----------|
A|----------------------|------------------------|---------5h3----------|------------------------|
D|-7--------------------|-0----------------------|-3--------------------|-7----------------------|

G|----------------------|------------------------|----------------------|
D|---------5h7----------|------------------------|----------------------|
A|----------------------|-----------3h5----------|---------5h3----------| Go right into Last Verse 
D|-7--------------------|-0----------------------|-3--------------------|



[Last Verse]

(2:43)

G|----------------------|------------------------|----------------------|------------------------|
D|----------------------|-----5h7----------------|----------------------|-----5h7----------------|
A|----------------------|-----------5h7----------|----------------------|-----------5h7----------|
D|-7-------5h7-------5h-|-7----------------------|-7-------5h7-------5h-|-7--------------2---2---|

G|----------------------|------------------------|----------------------|------------------------|
D|----------------------|-----5h7----------------|----------------------|---5h7------------------|
A|----------------------|-----------5h7----------|----------------------|-------------5h7--------|
D|-7-------5h7-------5h-|-7----------------------|-7-------5h7-------5h-|-7----------------2--5--|


[Outro Chorus]

G|----------------------|----------------------|------------------------|
D|---------5h7----------|----------------------|-----------5h7----------|
A|----------------------|---------5h3----------|------------------------|
D|-0--------------------|-3--------------------|-7----------------------|

G|----------------------|------------------------|----------------------|------------------------|
D|---------5h7----------|------------------------|----------------------|-----------5h7----------|
A|----------------------|-----------3h5----------|---------5h3----------|------------------------|
D|-7--------------------|-0----------------------|-3--------------------|-7----------------------|

G|----------------------|------------------------|----------------------|------------------------|
D|---------5h7----------|-----------5h7----------|----------------------|-----------5h7----------|
A|----------------------|------------------------|---------5h3----------|------------------------|
D|-7--------------------|-0----------------------|-3--------------------|-7----------------------|

G|----------------------|------------------------|----------------------|
D|---------5h7----------|------------------------|----------------------|
A|----------------------|-----------3h5----------|---------5h3----------|
D|-7--------------------|-0----------------------|-3--------------------|

repeat Outro chorus and fade out halfway through



************************************

| h   Hammer-on
| p   Pull-off

************************************

            
            
Suggest correction
Creating personal tab
Creating personal tab
You can edit any tab online and save it as your Personal.

You can edit, replace or remove any tab part or add personal notes – all changes will be seen only by you.

Personal tabs can be accessed anytime from any device, even offline.
Learn more »
comments
print report bad tab
2 comments total.
0 reply
JimBonJovi 830 Feb 18, 2017 11:35 AM

Wicked tab.

0 reply
baudouinpr 10 Apr 26, 2017 02:21 PM

👍

guest
You may want to rate the tab now too:
select rating
Wanna post a correction for this tab? Suggest correction