Oops, an error
Loading. Please wait.

Dont Give Hate A Chance Bass Tab

67,322 views 114 this week
6 commentsread comments
1 2 3 4 5
excellent!
x 29
add to favorites
launch autoscroll
font size
0
reset
guitar tuner
Autoscroll
slow
fast
+/-
esc
set tempo
stop
Help us to improve Ultimate-Guitar.com Take our survey!
×
Author
Difficulty
advanced
[Intro]

G|-----------------|------------------|
D|---Rest 11 bars--|------------------|
A|-----------------|------------------|
E|-----------------|------------2/14/2|


[Verse]

G|--------------|--------6-|--4-4h6-2-4------|
D|--44-44-44-44-|--4-6-7---|---x--------x2h4-|
A|--------------|-------4--|-2---------------|
E|-2--2--2--2---|-2-4-5----|-----------------|

G|-------4h6-4x-|--77-7-5x7-----|--7-------|
D|------4------4|----------x5h7-|----7-6-5-|
A|-2-4-5--------|-5--5----------|-5--------|
E|--------------|---------------|---5-4-3--|

G|--------------|-----------6-|--4-4h6-2-4---------|
D|--44-44-4x-44-|--44-66-76----|---x--------x2h4---|
A|--------------|----------4---|-2-----------------|
E|-2--2--2--2---|-2--4--5------|-------------------|

G|-------4h6-4x-|--77-7-5x7-----|--7-------|
D|------4------4|----------x5h7-|----7-6-5-|
A|-2-4-5--------|-5--5----------|-5--------|
E|--------------|---------------|---5-4-3--|

G|--------------|--------6-|--4-4h6-2-4------|
D|--44-x4-44-44-|--4-6-7---|---x--------x2h4-|
A|--------------|-------4--|-2---------------|
E|-2--2--2--2---|-2-4-5----|-----------------|

G|-------4h6-4x-|--77-7-5x7-----|--7-------|
D|------4------4|----------x5h7-|----7-6-5-|
A|-2-4-5--------|-5--5----------|-5--------|
E|--------------|---------------|---5-4-3--|

G|--------------|--------6-|--4-4h6-2-4------|
D|--44-44-4x-44-|--4-6-7---|---x--------x2h4-|
A|--------------|-------4--|-2---------------|
E|-2--2--2--2---|-2-4-5----|-----------------|

G|-------4h6-4x-|--7-7--|
D|------4------4|-------|
A|-2-4-5--------|-5-5-2-|
E|--------------|-------|


[Chorus]

G|---------|--7-7-7--|--6-6-6--|--4-4-4--|
D|--4-4-4--|---------|---------|---------|
A|---------|-5-5-5-5-|-4-4-4-4-|-2-2-2-2-|
E|-2-2-2-0-|---------|---------|---------|

G|------------|----------|--7-7------|--7x-x-|
D|--7-x-------|--7-7-----|-----------|-------|
A|------------|------4-5-|-5-5-5-7-4-|-5-x2--|
E|-5-5-5-7-4--|-5-5-5----|-----------|-------|

G|---------|--7-7-7--|--6-6-6--|--4-4-4--|
D|--4-4-4--|---------|---------|---------|
A|---------|-5-5-5-5-|-4-4-4-4-|-2-2-2-2-|
E|-2-2-2-0-|---------|---------|---------|

G|------------|----------|--7-7------|--7x-x-|
D|--7-x-------|--7-7-----|-----------|-------|
A|------------|------4-5-|-5-5-5-7-4-|-5-x2--|
E|-5-5-5-7-4--|-5-5-5----|-----------|-------|


[Verse]

G|--------------|--------6-|--4-4h6-2-4------|
D|--44-44-44-44-|--4-6-7---|---x--------x2h4-|
A|--------------|-------4--|-2---------------|
E|-2--2--2--2---|-2-4-5----|-----------------|

G|-------4h6-4x-|--77-7-5x7-----|--7-------|
D|------4------4|----------x5h7-|----7-6-5-|
A|-2-4-5--------|-5--5----------|-5--------|
E|--------------|---------------|---5-4-3--|

G|--------------|-----------6-|--4-4h6-2-4---------|
D|--44-44-4x-44-|--44-66-76----|---x--------x2h4---|
A|--------------|----------4---|-2-----------------|
E|-2--2--2--2---|-2--4--5------|-------------------|

G|-------4h6-4x-|--77-7-5x7-----|--7-------|
D|------4------4|----------x5h7-|----7-6-5-|
A|-2-4-5--------|-5--5----------|-5--------|
E|--------------|---------------|---5-4-3--|

G|--------------|--------6-|--4-4h6-2-4------|
D|--44-x4-44-44-|--4-6-7---|---x--------x2h4-|
A|--------------|-------4--|-2---------------|
E|-2--2--2--2---|-2-4-5----|-----------------|

G|-------4h6-4x-|--77-7-5x7-----|--7-------|
D|------4------4|----------x5h7-|----7-6-5-|
A|-2-4-5--------|-5--5----------|-5--------|
E|--------------|---------------|---5-4-3--|

G|--------------|--------6-|--4-4h6-2-4------|
D|--44-44-4x-44-|--4-6-7---|---x--------x2h4-|
A|--------------|-------4--|-2---------------|
E|-2--2--2--2---|-2-4-5----|-----------------|

G|-------4h6-4x-|--7-7--|
D|------4------4|-------|
A|-2-4-5--------|-5-5-2-|
E|--------------|-------|


[Chorus]

G|---------|--7-7-7--|--6-6-6--|--4-4-4--|
D|--4-4-4--|---------|---------|---------|
A|---------|-5-5-5-5-|-4-4-4-4-|-2-2-2-2-|
E|-2-2-2-0-|---------|---------|---------|

G|------------|----------|--7-7------|--7x-x-|
D|--7-x-------|--7-7-----|-----------|-------|
A|------------|------4-5-|-5-5-5-7-4-|-5-x2--|
E|-5-5-5-7-4--|-5-5-5----|-----------|-------|

G|---------|--7-7-7--|--6-6-6--|--4-4-4--|
D|--4-4-4--|---------|---------|---------|
A|---------|-5-5-5-5-|-4-4-4-4-|-2-2-2-2-|
E|-2-2-2-0-|---------|---------|---------|

G|------------|----------|--7-7------|--7x-x-|
D|--7-x-------|--7-7-----|-----------|-------|
A|------------|------4-5-|-5-5-5-7-4-|-5-x2--|
E|-5-5-5-7-4--|-5-5-5----|-----------|-------|


[Interlude]

G|-------------|-------------|--------------|-----------|
D|-------------|-------------|--------------|-----------|
A|-x4-x4-x4-x4-|-x4-x4-x4-x4-|-xx5-x5-x5-x5-|-5/9-7-5-0-|
E|-------------|-------------|--------------|-----------|


[Bridge]

G|---------------|-----------------|
D|---------------|-----------------|
A|---------------|-------------2h4-|
E|-2-2-x2x-x2-2-x|-2-2-x2x-x2-2----|

G|---------------|-----------------|
D|---------------|-------------2h4-|
A|---------------|-----------------|
E|-2-2-x2x-x2-2-x|-2-2-x2x-x2-2----|

G|---------------|-----------------|
D|---------------|-------------2h4-|
A|---------------|-----------------|
E|-2-2-x2x-x2-2-x|-2-2-x2x-x2-2----|

G|---------------|-----------------|
D|---------------|-----------------|
A|---------------|---------------4-|
E|-2-2-x2x-x2-2-x|-2-2-x2x-x2-4-5--|
                                   ~ ~
G------------------|-------------2/6-4--|
D------------------|--------------------|
A-5-5-x5x-x5-5--5--|-4-4-x4x-x4-2-----4-|
E--------------5-5-|--------------------|

G|------------------|--------------4------|
D|------------------|-------------4-4-----|
A|-5-5-x5x-x5-----2-|-4-4-x4x-x4-2---2x-2-|
E|-----------2-4h5--|---------------------|

G|----------------|----------------4----|
D|----------------|--------------4--4---|
A|-5-5-x5x-x5-454-|-4-4-x4x-x4-2-----2x-|
E|----------------|---------------------|

G|------------------|--------------4------|
D|------------------|-------------4-4-----|
A|-5-5-x5x-x5-----2-|-4-4-x4x-x4-2---2x-2-|
E|-----------2-4h5--|---------------------|

G|------------------|-----------------------|
D|------------------|-----------------------|
A|-5-5-x5x-x5-----2-|-4-4-x4-x-4-2-2-x-2-x4-|
E|-----------2-4h5--|-----------------------|

G|------------------|------654--------|
D|------------------|----x4---764-----|
A|-5-5-x5x-x5-----2-|-4-4--------2-x4-|
E|-----------2-4h5--|-----------------|

G|----------------|----------------4----|
D|----------------|--------------4--4---|
A|-5-5-x5x-x5-454-|-4-4-x4x-x4-2-----2x-|
E|----------------|---------------------|

G|----------------|---------------------|
D|----------------|---------------------|
A|-5-5-x5x-x5-454-|-4-4-x4x-x4-2-2-x-x2-|
E|----------------|---------------------|


[Chorus]

G|---------|--7-7-7--|--6-6-6--|--4-4-4--|
D|--4-4-4--|---------|---------|---------|
A|---------|-5-5-5-5-|-4-4-4-4-|-2-2-2-2-|
E|-2-2-2-0-|---------|---------|---------|

G|------------|----------|--7-7------|--7x-x-|
D|--7-x-------|--7-7-----|-----------|-------|
A|------------|------4-5-|-5-5-5-7-4-|-5-x2--|
E|-5-5-5-7-4--|-5-5-5----|-----------|-------|

G|---------|--7-7-7--|--6-6-6--|--4-4-4--|
D|--4-4-4--|---------|---------|---------|
A|---------|-5-5-5-5-|-4-4-4-4-|-2-2-2-2-|
E|-2-2-2-0-|---------|---------|---------|

G|------------|----------|--7-7------|--7x-x-|
D|--7-x-------|--7-7-----|-----------|-------|
A|------------|------4-5-|-5-5-5-7-4-|-5-x2--|
E|-5-5-5-7-4--|-5-5-5----|-----------|-------|

G|---------|--7-7-7--|--6-6-6--|--4-4-4--|
D|--4-4-4--|---------|---------|---------|
A|---------|-5-5-5-5-|-4-4-4-4-|-2-2-2-2-|
E|-2-2-2-0-|---------|---------|---------|

G|------------|----------|--7-7------|--7x-x-|
D|--7-x-------|--7-7-----|-----------|-------|
A|------------|------4-5-|-5-5-5-7-4-|-5-x2--|
E|-5-5-5-7-4--|-5-5-5----|-----------|-------|

G|---------|--7-7-7--|--6-6-6--|--4-4-4--|
D|--4-4-4--|---------|---------|---------|
A|---------|-5-5-5-5-|-4-4-4-4-|-2-2-2-2-|
E|-2-2-2-0-|---------|---------|---------|

G|------------|----------|--7-7------|--7x-x-|
D|--7-x-------|--7-7-----|-----------|-------|
A|------------|------4-5-|-5-5-5-7-4-|-5-x2--|
E|-5-5-5-7-4--|-5-5-5----|-----------|-------|

G|---------|--7-7-7--|--6-6-6--|--4-4-4--|
D|--4-4-4--|---------|---------|---------|
A|---------|-5-5-5-5-|-4-4-4-4-|-2-2-2-2-|
E|-2-2-2-0-|---------|---------|---------|

G|------------|----------|--7-7------|--7x-x-|
D|--7-x-------|--7-7-----|-----------|-------|
A|------------|------4-5-|-5-5-5-7-4-|-5-x2--|
E|-5-5-5-7-4--|-5-5-5----|-----------|-------|

Fade Out



************************************

| x  Dead note
| h  Hammer-on
| /  Slide up

************************************
Suggest correction
What's this?
You can suggest a correction to this tab. Community and Mods will review your correction and vote to approve or reject it.
comments
print report bad tab
6 comments total. Showing first comments.
+3 reply
chmanbass 19 wrote on June 21 2008, 05:30 pm

i tell u wat that is one hell of a good job uve done there m8 at doin that song, how funky is it tho! lol, 5 * cheers

0 reply
DomStables 528 wrote on August 20 2008, 07:03 am

yes, thats a wicked song, and that does indeed appear to be a wicked tab to go with it. congrats!

0 reply
tridone 26 wrote on September 18 2009, 05:09 am

+ ! awsome! 5*

guest
You may want to rate the tab now too:
select rating
Please do not post tabs as comments. Select "correction" instead!