Oops, an error
Loading. Please wait.

Drifting Along Bass Tab

6,216 views 6 this week
no commentswrite comment
1 2 3 4 5
1 last vote to show rating
add to favorites
launch autoscroll
font size
0
reset
guitar tuner
Autoscroll
slow
fast
+/-
esc
set tempo
stop
Help us to improve Ultimate-Guitar.com Take our survey!
×
(Main)
|----------|---------------|-------------|
|----------|-2-2--2---2----|-----------4-|
|----------|--------2------|---------4---|
|-0-0-2-3--|------------0--|-0-1-2-2-----|

 
|------|-------------|----------------------|9-99-9---9----------------|
|------|-------------|-7-7---7------9-9-----|-------9---7--9-----------|
|-Main-|-------------|-----7------------9---|------------------7-7-----|
|------|-------------|----------------------|----------------7-----0-0-|

|------|-------------|----------------------|--------------------------|
|------|-------------|-7-7---7------9-9-----|--------------------------|
|-Main-|-------------|-----7------------9---|---------7-------7--------|
|------|-------------|--------------------7-|---0-0-7-----------7-0--0-|

|------|-------------|----------------------|9-99-9---9----------------|
|------|-------------|-7-7---7--7---9-9---9-|-------9---7--9-----------|
|-Main-|-------------|-----7------7-----9---|------------------7-7-7---|
|------|-------------|----------------------|----------------7-------0-|

|------|-------------|----------------------|--99-9---9----------------|
|------|-4---4-------|-7-7---7------9-9---9-|-------9------------------|
|-Main-|---4---------|-----7------------9---|-----------7--------------|
|------|-------2-2-2-|----------------------|--------------7---0-0-0-0-|

|------|-------------|----------------------|--------------------------|
|------|-4---4-------|-7-7---7------9-9---9-|--------------------------|
|-Main-|---4---------|-----7------------9---|---7-7---7------7-7-------|
|------|-------2-2-2-|----------------------|-------7------------7-0-0-|

|------|-------------|----------------------|--99-9---9----------------|
|------|-4-4-4---4---|-7-7---7------9-9---9-|-------9---9--------------|
|-Main-|-------4-----|-----7------------9---|-------------7------------|
|------|-----------2-|----------------------|----------------7-7-7-0-0-|

|------|-------------|----------------------|--------------------------|
|------|-4---4-------|-7-7---7------9-9---9-|--------------------------|
|-Main-|---4---------|-----7------------9---|---7-7---7-----6-7-7-7----|
|------|-------2-2-2-|----------------------|-------7-----7----------0-|

|------|-------------|----------------------|9-99-9---9----------------|
|------|-4---4-------|-7-7---7------9-9---9-|-------9---9--------------|
|-Main-|---4---------|-----7------------9---|--------------9-------7-7-|
|------|-------2-2-2-|----------------------|------------------7-7-----|

|------|-------------|----------------------|---9-9---9----------------|
|------|-4-----------|-7-7---7------9-9---9-|-------9---9--------------|
|-Main-|---4-0-------|-----7------------9---|-------------9--7-7-7-----|
|------|-------2-2-2-|----------------------|----------------------7-0-|

|----------|---------------|-------------|-------------|----------------------|9-99-9---9----------------|
|----------|------2---2----|-----------4-|-------------|-7-7---7------9-9---9-|-------9---7--9-----------|
|----------|--------2------|---------4---|-------------|-----7------------9---|------------------7-7-7---|
|-0-0-2-3--|------------0-0|-0-1-2-2-----|------2-2--2-|----------------------|----------------7-------0-|

|----------|---------------|-------------|-------------|----------------------|--99-9--------------------|
|----------|-2-2--2---2----|-----------4-|-4---4-------|-7-7---7------9-------|-------9-9----------------|
|----------|--------2------|---------4---|---4---------|-----7----------9-----|-----------7--9------7----|
|-0-0-2-3--|------------0--|-----2-2-----|-------2-2-2-|------------------7-7-|7----------------7-7------|

|----------|---------------|-----------|
|----------|------2---2----|-----------|
|----------|--------2------|--Fade-Out-|
|-0-0-2-3--|------------0--|-----------|
Suggest correction
Give kudos to tab author, rate the tab!
1 2 3 4 5
comments
print report bad tab
guest
You may want to rate the tab now too:
select rating
Wanna post a correction for this tab? Suggest correction