Oops, an error
Loading. Please wait.

Emergency On Planet Earth Bass Tab

version 3
version 3

Whole song

2,007 views 1 this week
no commentswrite comment
1 2 3 4 5
please rate
add to favorites
launch autoscroll
font size
0
reset
guitar tuner
Autoscroll
slow
fast
+/-
esc
set tempo
stop
Help us to improve Ultimate-Guitar.com Take our survey!
×
Author
Difficulty
intermediate
All the notes on the E and the A string are slapped and all the notes on the D and 
the G string are popped.

G|---------------8----------5----7----8-----------------------------------|
D|----5----3--------------------------------------------------------------|
A|-------------6----5-5---3----5----6-------------------------------------|
E|--3----1-------------------------------4-4------------------------------|

G|---------------8----------5----7----8-----------------------------------|
D|----5----3------------------------------6-6-----------------------------|
A|-------------6----5-5---3----5----6-------------------------------------|
E|--3----1-------------------------------4-4------------------------------|

G|---------------8----------5----7----8-----------------------------------|
D|----5----3------------------------------6-6-----------------------------|
A|-------------6----5-5---3----5----6-------------------------------------|
E|--3----1-------------------------------4-4------------------------------|

G|---------------8---7-10--5----7----8------------------------------------|
D|----5----3------------------------------6-------------------------------|
A|-------------6----5-8---3----5----6-------------------------------------|
E|--3----1-------------------------------4-4------------------------------|

G|--------------3------------5----7----8----------66----6----6------------|
D|----5----7--------------------------------------------------------------|
A|------------1----3---3---3----5----6-------4--4-----4----4--------------|
E|--3----5--------------------------------44------------------------------|

G|--------------3------------5----7----8--------6-------8-----------------|
D|----5----7--------------------------------6-------8---------------------|
A|------------1----3---3---3----5----6--------4-------6-------------------|
E|--3----5--------------------------------4-------6-----------------------|

G|---------------8----------5----7----8-----------------------------------|
D|----5----3--------------------------------------------------------------|
A|-------------6----5-5---3----5----6-------------------------------------|
E|--3----1-------------------------------4-4------------------------------|

G|---------------8---77---10---5----7----8--------------------------------|
D|----5----3---------------------------------6-6--------------------------|
A|-------------6----5---8----3----5----6----------------------------------|
E|--3----1----------------------------------4-4---------------------------| 

G|---------------8----------5----7----8-----------------------------------|
D|----5----3------------------------------6-6---6-------------------------|
A|-------------6----5-5---3----5----6-------------------------------------|
E|--3----1-------------------------------4-4--4---------------------------|

G|---------------8----------5----7----8-----------------------------------|
D|----5----3------------------------------6-6-----------------------------|
A|-------------6----5-5---3----5----6-------------------------------------|
E|--3----1-------------------------------4-4------------------------------|

G|--------------3------------5----7----8----------6----6----6-------------|
D|----5----7--------------------------------------------------------------|
A|------------1----3---3---3----5----6-------4--4----4----4---------------|
E|--3----5--------------------------------44------------------------------|

G|--------------3------------5----7----8--------6-------8-----------------|
D|----5----7--------------------------------6-------8---------------------|
A|------------1----3---3---3----5----6--------4-------6-------------------|
E|--3----5--------------------------------4-------6-----------------------|


G|--------------3------------5----7----8----------6----66---6-------------|
D|----5----7--------------------------------------------------------------|
A|------------1----3---3---3----5----6-------4--4----4----4---------------|
E|--3----5--------------------------------44------------------------------|

G|--------------3------------5----7----8--------6-------------------------|
D|----5----7--------------------------------6-----------------------------|
A|------------1----3---3---3----5----6--------4---------------------------|
E|--3----5--------------------------------4------------10/3---------------|

G|--------------3----5-5---5-5----7----8-----------6-6---6-6--------------|
D|----5----7--------------------------------------------------------------|
A|------------1----3--3--3--3----5----6-------4--4--4--4--4---------------|
E|--3----5---------------------------------44-----------------------------|

G|--------------3----5-5---5-5----7-7--8-8-------6------------------------|
D|----5----7---------------------------------6----------------------------|
A|------------1----3--3--3--3----5-5--6-6------4--------------------------|
E|--3----5---------------------------------4-------6-3/10/3---------------|

G|---------------8----------5----7----8-----------------------------------|
D|----5----3------------------------------6-8-----------------------------|
A|-------------6----5-5---3----5----6-------------------------------------|
E|--3----1-------------------------------4-6------------------------------|

G|---------------8----------5----7----8-----------------------------------|
D|----5----3------------------------------6-6-----------------------------|
A|-------------6----5-5---3----5----6-------------------------------------|
E|--3----1-------------------------------4-4------------------------------|

G|--------------3----55--5---5----7----8----------66---6----6-------------|
D|----5----7--------------------------------------------------------------|
A|------------1----3---3---3----5----6-------4--4----4----4---------------|
E|--3----5--------------------------------44------------------------------|

G|--------------3----55--5---5----7-7--8-8-------6------------------------|
D|----5----7---------------------------------6-------8--------------------|
A|------------1----3---3---3-----5-5--6-6------4--------------------------|
E|--3----5---------------------------------4-------6----10/3--------------|

G|---------------8----------5----7----8-----------------------------------|
D|----5----3--------------------------------------------------------------|
A|-------------6--x-5-5---3----5----6-------------------------------------|
E|--3----1-------------------------------4-4------------------------------|

G|---------------8----------5----7----8-----15---12-----------------------|
D|----5----3--------------------------------------------------------------|
A|-------------6----5-5---3----5----6----13----10-------------------------|
E|--3----1----------------------------------------------------------------|

G|---------------8----------5----7----8-----------------------------------|
D|----5----3------------------------------8----6-6------------------------|
A|-------------6----5-5---3----5----6-------------------------------------|
E|--3----1-------------------------------6-x-x--4-------------------------|

G|---------------8----77---10----5----7----8--8---------------------------|
D|----5----3--------------------------------------6---6-------------------|
A|-------------6----5----8-----3----5----6--6-----------------------------|
E|--3----1--------------------------------------4---4---3-----------------|
Suggest correction
Give kudos to tab author, rate the tab!
1 2 3 4 5
comments
print report bad tab
guest
You may want to rate the tab now too:
select rating
Please do not post tabs as comments. Select "correction" instead!