Oops, an error
Loading. Please wait.

Little L bass

version 1
version 1

Whole song

Interactive

14,475 views 63 this week
1 commentread comment
1 2 3 4 5
x 10
add to favorites
×
Save as Personal and add changes to this tab that will be seen only by you. Learn more ›
×
You can save this tab as Personal to edit and correct it or add notes. All changes will be seen only by you. Learn more »
launch autoscroll
font size
0
reset
guitar tuner
edit
Autoscroll
slow
fast
+/-
esc
set tempo
stop
Author
Difficulty
Tuning: EADG

[Intro]
      P
G|-(8)10---------------------|
D|---------------------------|
A|---------6--8--6-6----6--8-|
E|---------------------------|

[Verse]
G|--------------|-----------------|--------------|----3----------|
D|-------4------|----6------6---4-|-------3------|---------------|
A|--------------|-----------------|--------------|-1----1---1----|
E|-2--2-----2---|-4----4--4---2---|-1--1----1-1--|-------------1-|

[Chorus]
G|--------------|-----------------|--------------|---3-3---------|
D|-------4------|----6------6---4-|-------3------|---------------|
A|--------------|-----------------|-------------0|1-----1---1----|
E|-2--2----2-2--|-4----4--4---2---|-1--1----1-4--|-------------1-|

            
            
Suggest correction
Creating personal tab
Creating personal tab
You can edit any tab online and save it as your Personal.

You can edit, replace or remove any tab part or add personal notes – all changes will be seen only by you.

Personal tabs can be accessed anytime from any device, even offline.
Learn more »
comments
print report bad tab
1 comment total.
0 reply
paweu.trojan 10 Oct 12, 2017 06:29 PM

it's just wrong! wrong key, wrong progression, you name it...
First of all, there is a key change. Intro is played in Ab (A-flat), rest of song is in Gb (G-flat).
Let's focus on verse - start with note D# -> G# to F# -> F -> A# to E...
Or to put it in the RIGHT key: Eb -> Ab to Gb -> F -> Bb to E (last note is Eb natural)

Or just forget it. Buy a book and learn from it. It's not rocket science.

guest
You may want to rate the tab now too:
select rating
Wanna post a correction for this tab? Suggest correction